Linkin Park - Dont Stay Chords & Tabs

 

Dont Stay Chords & Tabs

Linkin Park Chords & Tabs

Version: 5 Type: Tab 0 ratings
1 star 2 stars 3 stars 4 stars 5 stars
comments

Dont Stay Tab

Linkin Park - Dont Stay

Tabbed by Killl_Roy
!!REGULAR TUNING!!


Intro (play with the flesh of your thumb,It'll have a slight mute effect)
e---------------------------------------------]
B---------------------------------------------]
G---------------------------------------------]
D------4-----2---5--4-------------------------]
A--2---4--5--2---5--4-------------------------]
E--2------5-----------------------------------] X4

Verse (Play hard so it rocks!!)
e---------------------------------------------]
B---------------------------------------------]
G---------------------------------------------]
D------4-----2---5--4-------------------------]
A--2---4--5--2---5--4-------------------------]
E--2------5-----------------------------------] X3
[ Tab from: http://www.guitartabs.cc/tabs/l/linkin_park/dont_stay_tab_ver_5.html ]
Pre Chorus
e---------------------------------------------]
B---------------------------------------------]
G---------------------------------------------]
D------4--------------------------------------]
A--2---4--5--3--3-3-3-------------------------]
E--2------5--3--3-3-3-------------------------] X1

Chorus
e---------------------------------------------]
B---------------------------------------------]
G---------------------------------------------]
D------4--5--7--2---4-------------------------]
A--2---4--5--7--2---4--5--3--2----------------]
E--2-------------------5--3--2----------------]

Bridge
e---------------------------------------------]
B---------------------------------------------]
G----------9--12------------------------------]
D--4-5-4---x--x-------------------------------]
A--2-3-2---7--10------------------------------]
E--2-3-2--------------------------------------] X5

e---------------------------------------------]
B---------------------------------------------]
G---------------------------------------------]
D--4-5-4--------------------------------------]
A--2-3-2---3-3--3-3-3--3-3--3-3-3-------------]
E--2-3-2---3-3--3-3-3--3-3--3-3-3-------------] X1

The Rest Are Repeats, you will figure it out
Comments