Linkin Park - Dont Stay Chords & Tabs

 

Dont Stay Chords & Tabs

Linkin Park Chords & Tabs

Version: 2 Type: Bass Tab 0 ratings
1 star 2 stars 3 stars 4 stars 5 stars
comments

Dont Stay Bass Tab

   
LINKIN PARK - DON'T STAY

SONG: DON'T STAY
ARTIST: LINKIN PARK
ALBUM: METEORA (Track 2)
DURATION: 3:07

No bass until 0:13

==INTRO==

G|--------------------------------------------
D|--------------------------------------------        x4  (stop at 0:24)
A|-------9-5--7-7-7-10-9----------------------
E|-7-7-7--------------------------------------

==Verse 1==

No Bass Until 0:33

G|-------
D|-------         x1
A|-33333-
E|-------

G|--------------------------------------------
D|--------------------------------------------       x3
A|-------9-5--7-7-7-10-9----------------------
E|-7-7-7--------------------------------------

G|--------------------------------------------
D|--------------------------------------------       x1 
A|-------9-5--3*------------------------------
E|-7-7-7--------------------------------------

==Chorus==

G|--------------------------------------------
D|--------------------------------------------       x4
A|---9-10-12-7-9-5-3-------------------------- 
E|-7------------------------------------------

G|--------------------------------------------
D|--------------------------------------------       x2
A|-------9-5--7-7-7-10-9----------------------
E|-7-7-7--------------------------------------

==Verse 2==

No bass until 1:21
G|-------
D|-------         x1
A|-33333-
E|-------
[ Tab from: http://www.guitartabs.cc/tabs/l/linkin_park/dont_stay_btab_ver_2.html ]
G|--------------------------------------------
D|--------------------------------------------       x3
A|-------9-5--7-7-7-10-9----------------------
E|-7-7-7--------------------------------------

G|--------------------------------------------
D|--------------------------------------------       x1 
A|-------9-5--3-333--3-333--------------------
E|-7-7-7--------------------------------------

==Chorus==

G|--------------------------------------------
D|--------------------------------------------       x4 (stop at 1:56)
A|---9-10-12-7-9-5-3-------------------------- 
E|-7------------------------------------------


==Bridge==

No bass until 2:06

G|--------------------
D|--------------------        x7
A|---3-3-2------------
E|-7------------------

G|--------------------
D|--------------------        x1
A|---3-3-2-3*---------
E|-7------------------

==Chorus==

G|--------------------------------------------
D|--------------------------------------------       x4 
A|---9-10-12-7-9-5-3-------------------------- 
E|-7------------------------------------------

==Outro== 

G|--------------------------------------------
D|--------------------------------------------       x3
A|-------9-5--7-7-7-10-9----------------------
E|-7-7-7--------------------------------------

G|--------------------------------------------
D|--------------------------------------------
A|-------9-5-3*-------------------------------
E|-7-7-7--------------------------------------

* = let note ring

This is my first tab - I'm pretty sure it's 100%, sounds great against the cd.
Comments