Linkin Park - Cure For The Itch Chords & Tabs

 

Cure For The Itch Chords & Tabs

Linkin Park Chords & Tabs

Version: 1 Type: Tab 0 ratings
1 star 2 stars 3 stars 4 stars 5 stars
comments

Cure For The Itch Tab

|-----------------------------
|-----------------------------
|-----------------------------
|---8-8-8-9-8-6---------------
|-6-------------9-9-8-8-8-9-8-
|-----------------------------

repeat untill there is a big bass part after that
[ Tab from: http://www.guitartabs.cc/tabs/l/linkin_park/cure_for_the_itch_tab.html ]
bass part can be played on the guitar as well I worked out, and it's simple if you bar the whole 6th fret during the intro.

|-----------------------------
|-----------------------------
|-----------------------------
|-6-6-------------------------
|-6-6-------------------------
|-6-6-------------------------
Comments