Linkin Park - Crawling Chords & Tabs

 

Crawling Chords & Tabs

Linkin Park Chords & Tabs

Version: 6 Type: Tab 0 ratings
1 star 2 stars 3 stars 4 stars 5 stars
comments

Crawling Tab

Linkin Park - Crawling.
[ Tab from: http://www.guitartabs.cc/tabs/l/linkin_park/crawling_tab_ver_6.html ]
Tabbed by:Tom Milewski IcEmAn (Guitarist4986) 
e----19-16----------------------
B----------19-17-16-17----------
G-18----------------------------
D-------------------------------
A-------------------------------
E-------------------------------
Repeated 4 times then the singer begins.

Chords for the Chorus:
E-----------------------------
B-----------------------------
G-----------------3-----------
D--11-----7-------2-----9-----
A--11-----7-------2-----9-----
E--11-----7-------2-----9-----
....craw-..skin..wounds...heal
Comments