Linkin Park - Crawling Chords & Tabs

 

Crawling Chords & Tabs

Linkin Park Chords & Tabs

Version: 11 Type: Tab 0 ratings
1 star 2 stars 3 stars 4 stars 5 stars
comments

Crawling Tab

   
Song:Crawling
Artist:Linkin Park
Tuning:Drop D then half a step down
Cb Gb Cb Fb Ab Db b=flat
Here is a quick runthrough
h=harmonic sl=slide
Intro Clean tone
Db------------20-----17-------15------------------------------------------------
Ab---15-------------------------------18---17----18---15------------------------
Fb------------------------------------------------------------------------------
Cb------------------------------------------------------------------------------
Gb------------------------------------------------------------------------------
Cb------------------------------------------------------------------------------

[ Tab from: http://www.guitartabs.cc/tabs/l/linkin_park/crawling_tab_ver_11.html ]
Chorus Part One
Distortion tone
Db------------------------------------------------------------------------------
Ab------------------------------------------------------------------------------
Fb--------------------------3---------------5------2----------------------------
Cb-----55555------0---------3-------3-------5------2----------------------------
Gb----------------0---------1-------3-------3------0----------------------------
Cb----------------0-----------------3-------------------------------------------
      1 time   crawling..skin...wounds....heal    
                      2 times
Pre-Chorus          
Clean tone      Somewhere in the middle of the verse you play this 
Db-----------------15---17------------------------------------------------------
Ab----15-----15-----------------------------------------------------------------
Fb-------14---------------------------------------------------------------------
Cb------------------------------------------------------------------------------
Gb------------------------------------------------------------------------------
Cb------------------------------------------------------------------------------


Chorus Part Two
Distortion Tone
Db------------------------------------------------------------------------------
Ab------------------------------------------------------------------------------
Fb---------------------------3---------------5-----2----------------------------
Cb------12--10sl-----0-------3-------3-------5-----2----------------------------
Gb-------------------0-------1-------3-------3-----0----------------------------
Cb-------------------0---------------3------------------------------------------
         h       crawling..skin...wounds...heal
         1 time          2 times


Here is the song order
Intro 4 times
Chorus Part One 2 times
Intro 2 times
Pre-Chorus 8 times
Chorus Part Two 2 times
Pre-Chorus 9 times 
Chorus Part One 6 times
Comments