Linkin Park - Crawling Chords & Tabs

 

Crawling Chords & Tabs

Linkin Park Chords & Tabs

Version: 10 Type: Tab 0 ratings
1 star 2 stars 3 stars 4 stars 5 stars
comments

Crawling Tab

This is my first tab.
 
But this Tab is iight!!

INTRO:
e|------13--13-----------------------------------------|
B|---8---------10--13--11--10--11----------------------|
G|-----------------------------------------------------|
D|-----------------------------------------------------|
A|-----------------------------------------------------|
E|-----------------------------------------------------|
(play ^ this a few times)
[ Tab from: http://www.guitartabs.cc/tabs/l/linkin_park/crawling_tab_ver_10.html ]
Chords For Chorus
e|---------------0-------------------------------------
B|---------------0-------------------------------------
G|----10----6----1----8--------------------------------
D|----11----7----2----9--------------------------------   
A|----11----7----2----9--------------------------------
E|----9-----5----0----7--------------------------------

e|-------------------------------
B|-------------------------------
G|-------------------------------
D|-------------------------------
A|----11----7----2----9----------
E|----9-----5----0----7----------

Thats it!!
Comments