Linkin Park - Crawling Chords & Tabs

 

Crawling Chords & Tabs

Linkin Park Chords & Tabs

Version: 5 Type: Bass Tab 0 ratings
1 star 2 stars 3 stars 4 stars 5 stars
comments

Crawling Bass Tab

Artist: Linkin Park
Song: Crawling
Album: Hybrid Theory
Tabbed by: Brian Fox (bcfox32)

The song is pretty easy. This is the way i tune it as it matches the guitar, but it's 
easier in C#ADG.

(7)-not sure, but it sounds good

Intro
F#|--------------------  x1
C#|--------------------
G#|1----8-3--8-5--3----
C#|-----------------3--

Chorus
F#|------------------------- x2
C#|-------------------------
G#|-------------------------
C#|0----8----3----10strum-7-

Verse
F#|----------------------- x3
C#|-----------------------
G#|-----------------------
C#|0----8----3----10----7-

F#|------------------------  x2
C#|------------------------
G#|1----8-3--8-5--3--------
C#|-----------------3--(7)-

Chorus
F#|------------------------- x2
C#|-------------------------
G#|-------------------------
C#|0----8----3----10strum-7-
[ Tab from: http://www.guitartabs.cc/tabs/l/linkin_park/crawling_btab_ver_5.html ]
Verse
F#|----------------------- x3
C#|-----------------------
G#|-----------------------
C#|0----8----3----10----7-

F#|------------------------  x2
C#|------------------------
G#|1----8-3--8-5--3--------
C#|-----------------3--(7)-

Chorus
F#|------------------------- x2
C#|-------------------------
G#|-------------------------
C#|0----8----3----10strum-7-

F#|----------------------------  x1
C#|----------------------------
G#|--7-5-----------------------
C#|0-----7-8----3----10strum-7-

F#|------------------------- x2
C#|-------------------------
G#|-------------------------
C#|0----8----3----10strum-7-

F#|----------------------------  x1
C#|----------------------------
G#|--7-5-----------------------
C#|0-----7-8----3----10strum-7-

That's it. The last strum on the ten is about twice as long as the others.  
Any comments, private message me.
Comments