Linkin Park - Crawling Chords & Tabs

 

Crawling Chords & Tabs

Linkin Park Chords & Tabs

Version: 3 Type: Bass Tab 0 ratings
1 star 2 stars 3 stars 4 stars 5 stars
comments

Crawling Bass Tab

Tabbed by fatfrogger2000@hotmail.com.
  
linkin park
"crawling"-bass

g----------------------------------
d----------------------------------
a-----|----------------|-----------
e-----|--0----0----0---|---2----2--
intro (last two times)
[ Tab from: http://www.guitartabs.cc/tabs/l/linkin_park/crawling_btab_ver_3.html ]
g----------------------------------------------|------
d----------------------------------------------|------
a--------------3--3-3--3-------------5--5-5--5-|-(5)--
e--0--0-0--0--------------3--3-3--3------------|------
   Crawling    skins      wounds     heal
   Fear        fall       confusing  real

don\'t play on verses

g---------------------------------------------------
d---------------------------------------------------
a--5---5-5-5---5-5---5-5-5--5-5--5--5-5--5-5-5-5-6--
e---------------------------------------------------
 outro 
Comments