Linkin Park - Crawling Chords & Tabs

 

Crawling Chords & Tabs

Linkin Park Chords & Tabs

Version: 1 Type: Bass Tab 1 rating
1 star 2 stars 3 stars 4 stars 5 stars
comments

Crawling Bass Tab

Artist: Linkin Park
Song:Crawling
Album: Hybrid theory
Tab by: SpookTheHamster (spookthehamster@yahoo.co.uk)
Previous tabs by: SpookTheHamster(spookthehamster@yahoo.co.uk)
		  Paco (copo4369@aol.com)
                  Amir (amir_desert@hotmail.com)


There was a small error in the verse

No bass till 0:14

Intro (0:14)

G|----------------------------
D|-----2----2-----------------
A|--0----2----4--2---------0--
E|----------------------4-----
B|------------------5---------

Chorus (0:23)
[ Tab from: http://www.guitartabs.cc/tabs/l/linkin_park/crawling_btab.html ]
G|--------------------
D|--------------------
A|-----------7--------
E|------5----------7--
B|--2-----------------  x2

Verse (0:42)

G|--------------------
D|--------------------
A|-----------------7--
E|------5-------------
B|--2--------2-------- x3

G|----------------------------
D|-----2----2-----------------
A|--0----2----4--2---------0--
E|----------------------4-----
B|------------------5--------- x2

Chorus (1:27)

Verse (1:46)

Chorus (2:24)

Chorus (2.42)

Chorus (3:01)


There we go, this is sorta too easy, like all the linkin park songs


Any questions, email me.

Comments