Linkin Park - Carousel Chords & Tabs

 

Carousel Chords & Tabs

Linkin Park Chords & Tabs

Version: 1 Type: Bass Tab 0 ratings
1 star 2 stars 3 stars 4 stars 5 stars
comments

Carousel Bass Tab

   
Band- Linkin Park
Album- Hybrid Theory EP
Song- Carousel
Tuning- B,E,A,D,G

Intro: No bass

Verse:
G|------------------------------------------|
D|------------------------------------------|
A|------------------------------------------|
E|------------------------------------------|
B|-4-4-4---5-5-5----4-4-4---5--5--5---------|
[ Tab from: http://www.guitartabs.cc/tabs/l/linkin_park/carousel_btab.html ]
Chorus:
G|------------------------------------------------------|
D|------------------------------------------------------|
A|------------------------------------------------------|
E|----------------------3--4-----------------3---4------|
B|----4---5---4----5----------4---5---4---5-------------|

Rest in second verse.
Chorus
Bridge: Rest while guitar plays then:
G|------------------------------------------|
D|------------------------------------------|
A|------------------------------------------|
E|------------------------------------------|
B|-4-4-4-4---4-4-4-4----5-------------------|
Then Chorus till end.
Comments