Linkin Park - By Myself Chords & Tabs

 

By Myself Chords & Tabs

Linkin Park Chords & Tabs

Version: 3 Type: Tab 0 ratings
1 star 2 stars 3 stars 4 stars 5 stars
comments

By Myself Tab

   
Linkin Park    By Myself
Tuning= Drop Db
PALM MUTE= *
(9)= PLAY WITH A 1/4 BEND
= DOWNWARD SLIDE
/= UPWARD SLIDE
X= MUTED STRINGS
INTRO
Eb|-------------------------
Bb|-------------------------
Gb|-------------------------
Db|1-1---1---1-/-7-7-----(9) 3X
Ab|1-1---1---1-/-7-7--------          
Db|1-1---1---1-/-7-7--------   
   * *   *   *
Eb|----------------------------------
Bb|----------------------------------
Gb|----------------------------------
Db|-1-1---1--1-/-7---(9)---1-1---1--1  
Ab|-1-1---1--1-/-7---------1-1---1--1
Db|-1-1---1--1-/-7---------1-1---1--1
    * *   *  *             * *   *  *
VERSE 1
Eb|-----------------
Bb|-----------------
Gb|-----------------
Db|1-1---1---1-/-7-7  2X (LISTIN FOR THESE PARTS NEAR THE END OF VERSE 1)
Ab|1-1---1---1-/-7-7          
Db|1-1---1---1-/-7-7 
   * *   *   *
PRE-CHORUS
Eb|-------------------------
Bb|-------------------------
Gb|-------------------------
Db|1-1---1---1-/-7-7-----(9) 4X
Ab|1-1---1---1-/-7-7--------          
Db|1-1---1---1-/-7-7-------- 
   * *   *   *
CHORUS
Eb|------------------------------------
Bb|------------------------------------
Gb|------------------------------------
Db|7----------3---3-3---3---0---------  3X
Ab|7----------3---3-3---3---0---------          
Db|7----------3---3-3---3---0----7-7-7
                   * *   *        * * *
Eb|--------------------------------------
Bb|--------------------------------------
Gb|--------------------------------------
Db|7----------3---3-3---3---0----X-X---X
Ab|7----------3---3-3---3---0----X-X---X         
Db|7----------3---3-3---3---0----X-X---X
                   * *   *        
VERSE 2
Eb|-----------------
Bb|-----------------
Gb|-----------------
Db|1-1---1---1-/-7-7  2X (AGAIN, LISTIN FOR THESE PARTS NEAR THE END OF THE VERSE)
Ab|1-1---1---1-/-7-7          
Db|1-1---1---1-/-7-7 
   * *   *   *
PRE-CHORUS
Eb|-------------------------
Bb|-------------------------
Gb|-------------------------
Db|1-1---1---1-/-7-7-----(9) 4X
Ab|1-1---1---1-/-7-7--------          
Db|1-1---1---1-/-7-7-------- 
[ Tab from: http://www.guitartabs.cc/tabs/l/linkin_park/by_myself_tab_ver_3.html ]
CHORUS
Eb|------------------------------------
Bb|------------------------------------
Gb|------------------------------------
Db|7----------3---3-3---3---0---------  3X
Ab|7----------3---3-3---3---0---------          
Db|7----------3---3-3---3---0----7-7-7
                   * *   *        * * *
Eb|------------------------------------------
Bb|------------------------------------------
Gb|------------------------------------------
Db|7----------3---3-3---3---0----X-X--X--7-7
Ab|7----------3---3-3---3---0----X-X--X--7-7        
Db|7----------3---3-3---3---0----X-X--X--7-7
                   * *   *  
VERSE 3
Eb|-----------------
Bb|-----------------  
Gb|-----------------
Db|1-1---1---1-/-7-7  6X
Ab|1-1---1---1-/-7-7       
Db|1-1---1---1-/-7-7
   * *   *   *
FILL
Eb|------
Bb|------
Gb|------
Db|7-7-(9)
Ab|7-7---        
Db|7-7---

PRE-CHORUS
Eb|-------------------------
Bb|-------------------------
Gb|-------------------------
Db|1-1---1---1-/-7-7-----(9) 8X
Ab|1-1---1---1-/-7-7--------          
Db|1-1---1---1-/-7-7--------  
   * *   *   *
   CHORUS
Eb|------------------------------------
Bb|------------------------------------
Gb|------------------------------------
Db|7----------3---3-3---3---0---------  3X
Ab|7----------3---3-3---3---0---------          
Db|7----------3---3-3---3---0----7-7-7
                   * *   *        * * *
Eb|-------------------------
Bb|-------------------------
Gb|-------------------------
Db|3---3-3---3---0----X-X--X
Ab|3---3-3---3---0----X-X--X        
Db|3---3-3---3---0----X-X--X
       * *   *
OUTRO CHORUS
Eb|------------------------------------
Bb|------------------------------------
Gb|------------------------------------
Db|7----------3---3-3---3---0---------  3X
Ab|7----------3---3-3---3---0---------          
Db|7----------3---3-3---3---0----7-7-7
                   * *   *        * * *
Eb|----------------
Bb|----------------
Gb|----------------
Db|3---3--3---3---0
Ab|3---3--3---3---0        
Db|3---3--3---3---0
       *  *   *

If you have any questions please email me at Jacobyabo@comcast.net
Comments