Linkin Park - By Myself Chords & Tabs

 

By Myself Chords & Tabs

Linkin Park Chords & Tabs

Version: 2 Type: Tab 0 ratings
1 star 2 stars 3 stars 4 stars 5 stars
comments

By Myself Tab

TABLATURE
SONG TITLE: BY MYSELF
ARTIST: LINKIN PARK
TABBED BY: DANIEL "Ace - A Spades" NIST (lead vocalist, songwriter,
primary lead guitarist, secondary rhythm guitarist, and secondary
bassist of the band Lethal Truth)

Hey to every Linkin Park fan out there!

    Ace is coming back at ya with another great tab for another great
song. By Myself has to be one of the heaviest songs on their new album
outside of In The End. Anyway here are the tabs for it. Trust me when
I tell you that they are correct. Have fun with them and peace!

- Ace - 


h = HAMMER ON
p = PULL OFF
s = SLIDE
x = MUTE

INTRO/PRE-CHORUS/INTERLUDE: 

GUITARS PLAY THIS FOUR TIMES FOR INTRO AND PRE-CHORUS.
GUITARS PLAY THIS EIGHT TIMES FOR INTERLUDE.

NOTE: DROP TUNE GUITARS TO D.

e|-------------------------------------------|
B|-------------------------------------------|
G|-------------------------------------------|
D|-------------------------------------------|
A|-1111-1-77---------------------------------|
D|-1111-1-77---------------------------------|

BASS PLAYS THIS FOUR TIMES FOR INTRO AND PRE-CHORUS.
BASS PLAYS THIS EIGHT TIMES FOR INTERLUDE.
[ Tab from: http://www.guitartabs.cc/tabs/l/linkin_park/by_myself_tab_ver_2.html ]
G|-------------------------------------------|
D|-------------------------------------------|
A|-------------------------------------------|
E|--------55---------------------------------|
B|-4444-4------------------------------------|

VERSE:

GUITARS ARE SILENT DURING THE VERSE.
BASS PLAYS THIS THREE TIMES FOR EACH VERSE.

G|-------------------------------------------|
D|-------------------------------------------|
A|-------------------------------------------|
E|-xx-x-55--xx-x-33--xx-x-11--xx-x-00--------|
B|-------------------------------------------|

CHORUS:

GUITARS PLAY THIS TWICE

e|-------------------------------------------|
B|-------------------------------------------|
G|-------------------------------------------|
D|-------------------------------------------|
A|-7-7-7777777-3-xx-x-0-xx-x-7-7-7777777-----|
D|-7-7-7777777-3-xx-x-0-xx-x-7-7-7777777-----|

e|-------------------------------------------|
B|-------------------------------------------|
G|-------------------------------------------|
D|-------------------------------------------|
A|-3-xx-x-5-xx-------------------------------|
D|-3-xx-x-5-xx-------------------------------|

PRE INTERLUDE:

GUITARS PLAY THIS TWICE.

e|-------------------------------------------|
B|-------------------------------------------|
G|-------------------------------------------|
D|-------------------------------------------|
A|-xxx-x-7--xxx-x-5--xxx-x-3--xxx-x-2--------|
D|-xxx-x-7--xxx-x-5--xxx-x-3--xxx-x-2--------|

PLAY CHORUS UNTIL THE END OF THE SONG
Comments