Linkin Park - By Myself Live Chords & Tabs

 

By Myself Live Chords & Tabs

Linkin Park Chords & Tabs

Version: 2 Type: Tab 0 ratings
1 star 2 stars 3 stars 4 stars 5 stars
comments

By Myself Live Tab

This is the real Live in Texas By Myself tab, I figured this out in just 5 seconds,
its live, so there is a difference between the CD version and the Live version.

Artist: Linkin Park
Tuning: 1/2 step down (All Linkin Park Tuning is like this except Don't Stay, which
is in drop B tuning)
CD: Live In Texas DVD/CD.

Intro:
eb|---------------------------------------------------|
Bb|---14--14------16--16------------14-----------16---|
Gb|-14--14--14--14--14--14--14-15-15--15-15-14-14--14-|
Db|---------------------------------------------------|
Ab|---------------------------------------------------|
Eb|---------------------------------------------------|
[ Tab from: http://www.guitartabs.cc/tabs/l/linkin_park/by_myself_live_tab_ver_2.html ]
Verse:               On the * do a pinched harmomic or harmonic,
eb|------------------|  /which ever you want, or like.
Bb|------------------| /
Gb|------------------|/
Db|-1-1-1-1/6-6-6-7*-|
Ab|-1-1-1-1/6-6-6----|
Eb|-1-1-1-1/6-6-6----|

Bridge
eb|------------------------------------|
Bb|------------------------------------| 
Gb|------------------------------------|
Db|-1-1-1-1/6-6-6--1-1-1-0-1/6-6-------|
Ab|-1-1-1-1/6-6-6--1-1-1-0-1/6-6-------|
Eb|-1-1-1-1/6-6-6--1-1-1-0-1/6-6-------|
                          \
Chorus:                    \
eb|---------------------|   \
Bb|---------------------| Last time around.
Gb|---------------------|
Db|-1-X-X-1-0-0-1/6-----|-1-1-1-0-0-0-|
Ab|-1-X-X-1-0-0-1/6-----|-1-1-1-0-0-0-|Play this after the verse, it leads
Eb|-1-X-X-1-0-0-1/6-----|-1-1-1-0-0-0-|into the Chorus.

Verse2
eb|--------------|
Bb|--------------| 
Gb|--------------|
Db|-1-1-1-1-7*---|Then play the regular verse, its just played once.
Ab|-1-1-1-1------|
Eb|-1-1-1-1------|

Thats it, Im pretty sure that its almost 100% correct.
Please Rate this tab. Thanx.
Comments