Linkin Park - By Myself Chords & Tabs

 

By Myself Chords & Tabs

Linkin Park Chords & Tabs

Version: 3 Type: Bass Tab 0 ratings
1 star 2 stars 3 stars 4 stars 5 stars
comments

By Myself Bass Tab

Intro - (0.09) - (0.25)
G |--------------------------------------|
D |--------------------------------------|
A |------2-2------2------2-2-------------|    x2
E |-4-4-------4-4---4-4-------4-4~-------|

Verse 1 (0.39)                      (0.58)
G |----------------------|-------------------------------------------|
D |----------------------|-------------------------------------------|
A |----------------------|-------5-5------2-2------------------------|
E |-00----00----00----00-|-4-4------------------4-4----4-4----4-3~---|
[ Tab from: http://www.guitartabs.cc/tabs/l/linkin_park/by_myself_btab_ver_3.html ]
Pre Chorus (1.07)  Chorus (when i look into your eyes...)x2
G |----------------|---------------------------------------| 
D |----------------|---------------------------------------|
A |----------------|--------2--------2--------2--------2---|    
E |---0-0----0-x---|---4--------4--------4--------4--------|

Verse 2 (1.39)                      (1.49)
G |---------------|----------------------------------------------|
D |---------------|----------------------------------------------|
A |---------------|---------5-5-------2-2------------------------|
E |---00----00----|---4-4-------------------4-4----4-4----4-3~---|

Pre Chorus (1.59)  Chorus (when i look into your eyes...)x2                 
G |----------------|---------------------------------------|
D |----------------|---------------------------------------|
A |----------------|--------2--------2--------2--------2---|    
E |---0-0----0-x---|---4--------4--------4--------4--------|

Outro--------No Bass

easy peasy!
i got the whole of reanimation album comin soon!
ne input plz tell me gb_packers152004@hotmail.com
Comments