Linkin Park - Breaking The Habit Chords & Tabs

 

Breaking The Habit Chords & Tabs

Linkin Park Chords & Tabs

Version: 5 Type: Tab 0 ratings
1 star 2 stars 3 stars 4 stars 5 stars
comments

Breaking The Habit Tab

Artist - Linkin Park
Song   - Breaking the Habbit
Album  - Meteora
Tabbed - Volt3r (Volt3r@mail.ru)
[ Tab from: http://www.guitartabs.cc/tabs/l/linkin_park/breaking_the_habit_tab_ver_5.html ]
Piano intro\main Riff
0.00 - 3.16
|-----------|6x|-----------|1x|-----------|1x
|-----------|  |-----------|  |-----------|
|-----------|  |-----------|  |-----------|
|----7-5-4--|  |------5-4--|  |----7-5-4--|
|--7--------|  |--7-5------|  |--7--------|
|-----------|  |-----------|  |-----------|

Main guitar riff
0.09 - 3.16
|------------------------|
|------------------------|
|------7-----------------|
|--------9-9-----10-9-9--|
|--7-7-------7-7---------|
|------------------------|

That's all i guess. Enjoy this song.
Comments