Linkin Park - Breaking The Habit Chords & Tabs

 

Breaking The Habit Chords & Tabs

Linkin Park Chords & Tabs

Version: 4 Type: Tab 0 ratings
1 star 2 stars 3 stars 4 stars 5 stars
comments

Breaking The Habit Tab

-----------------------------------------------------------------------------
		     Breaking The Habit - Linkin Park
-----------------------------------------------------------------------------
Tabbed by: Shifty
Email: av_shifty_lp@hotmail.com

Tuning: Standard

Intro & Verse 00:09 - 00:47]
-|--------------------------------|-
-|--------------------------------|-
-|--------------------------------|-
-|-10--x-13-10-10--10--x-11-10-10-|-
-|--------------------------------|-
-|--------------------------------|-
Play 16 times
Clean guitar with Compressor

[ Tab from: http://www.guitartabs.cc/tabs/l/linkin_park/breaking_the_habit_tab_ver_4.html ]
[Chorus 00:47 - 01:11]
-|-----------------|-
-|-----------------|-
-|-----------------|-
-|--------------10-|-
-|-10--x-13--13----|-
-|-----------------|-
Play 20 times


[Verse 01:11 - 01:44]
-|--------------------------------|- -|----------------|-
-|--------------------------------|- -|----------------|-
-|--------------------------------|- -|----------------|-
-|-10--x-13-10-10--10--x-11-10-10-|- -|-10--x-13-10-10-|-
-|--------------------------------|- -|----------------|-
-|--------------------------------|- -|----------------|-
Play 13 times Play once


[Chorus, Bridge, and Chorus 01:44 - 02:57]
-|-----------------|-
-|-----------------|-
-|-----------------|-
-|--------------10-|-
-|-10--x-13--13----|-
-|-----------------|-
Play 60 times
Comments