Linkin Park - Breaking The Habit Chords & Tabs

 

Breaking The Habit Chords & Tabs

Linkin Park Chords & Tabs

Version: 2 Type: Tab 0 ratings
1 star 2 stars 3 stars 4 stars 5 stars
comments

Breaking The Habit Tab

This tab is written so that you will not have to flip back to look up what 
to play. The tab follows the song exactly. If you want to play the beginning
then look at the tab at the top and if you want to play the end 
then look at the tab at the bottom. I have also included the time that the
riffs are played so that if you want to play a certain riff in the song, you 
just match the time on the CD to the times I have written. enjoy.

Tabbed by MRudy112358@yahoo.com (profession - Guitar Teacher)

Please note that there are lots of piano parts that have also been tabbed.
Don't let this confuse you, if you want to play the guitar part simply pay 
attention to the beginning of the measure and play only those that say guitar.


Piano E-----------------------------------------------------------------|
Arr.B-----------------------------------------------------------------|
for Gtr  G-----------------------------------------------------------------|
0:00-D------7---5---4-------7---5---4-------7---5---4-------7---5---4--|x2
0:09A--7---------------7---------------7---------------7--------------|
E-----------------------------------------------------------------|



Piano E-----------------------------------------------------------------|
Arr.B-----------------------------------------------------------------|
for Gtr  G-----------------------------------------------------------------|
0:09-D------7---5---4-------7---5---4-------7---5---4-------7---5---4--|
0:19A--7---------------7---------------7---------------7--------------|
E-----------------------------------------------------------------|
  |x2
E-----------------------------------------------------------------|
B--0---0-3---0-0---0---0-1---0-0---0---0-3---0-0---0---0-1---0-0--|
GuitarG-----------------------------------------------------------------|
D-----------------------------------------------------------------|
A-----------------------------------------------------------------|
E-----------------------------------------------------------------|



Piano E-----------------------------------------------------------------|
Arr.B-----------------------------------------------------------------|
for Gtr  G-----------------------------------------------------------------|
0:19-D------7---5---4-------7---5---4-------7---5---4-------7---5---4--|
0:23A--7---------------7---------------7---------------7--------------|
E-----------------------------------------------------------------|
  |
E-----------------------------------------------------------------|
B--0---0-3---0-0---0---0-1---0-0---0---0-3---0-0---0---0-1---0-0--|
GuitarG-----------------------------------------------------------------|
D-----------------------------------------------------------------|x1
A-----------------------------------------------------------------|
E-----------------------------------------------------------------|
          |
E-----------------------------------------------------------------|
SynthB-----------------------------------------------------------------|
Arr.G-----------------------------------------------------------------|
for GtrD---------------------------------14--------------17--------------|
A-----14----------------------------------------------------------|
E---------------------------------12------------------------------|





Piano E-----------------------------------------------------------------|
Arr.B-----------------------------------------------------------------|
for Gtr  G-----------------------------------------------------------------|
0:23-D------7---5---4-------7---5---4-------7---5---4-------7---5---4--|
0:28A--7---------------7---------------7---------------7--------------|
E-----------------------------------------------------------------|
  |
E-----------------------------------------------------------------|
B--0---0-3---0-0---0---0-1---0-0---0---0-3---0-0---0---0-1---0-0--|
GuitarG-----------------------------------------------------------------|
D-----------------------------------------------------------------|x1
A-----------------------------------------------------------------|
E-----------------------------------------------------------------|
      |
E-----------------------------------------------------------------|
SynthB-----------------------------------------------------------------|
Arr.G-----------------------------------------------------------------|
for GtrD-16-----------------------------17-------------------------------|
A-14--------------------------------------------------------------|
E-----------------------------------------------------------------|
             




Piano E-----------------------------------------------------------------|
Arr.B-----------------------------------------------------------------|
for Gtr  G-----------------------------------------------------------------|
0:28-D------7---5---4-------7---5---4-------7---5---4-------7---5---4--|
0:33A--7---------------7---------------7---------------7--------------|
E-----------------------------------------------------------------|
  |
E-----------------------------------------------------------------|
B--0---0-3---0-0---0---0-1---0-0---0---0-3---0-0---0---0-1---0-0--|
GuitarG-----------------------------------------------------------------|
D-----------------------------------------------------------------|x1
A-----------------------------------------------------------------|
E-----------------------------------------------------------------|
           |
E-----------------------------------------------------------------|
SynthB-----------------------------------------------------------------|
Arr.G-----------------------------------------------------------------|
for GtrD---------------------------------14--------------17--------------|
A-----14----------------------------------------------------------|
E---------------------------------12------------------------------|
       




Piano E-----------------------------------------------------------------|
Arr.B-----------------------------------------------------------------|
for Gtr  G-----------------------------------------------------------------|
0:33-D------7---5---4-------7---5---4-------7---5---4-------7---5---4--|
0:38A--7---------------7---------------7---------------7--------------|
E-----------------------------------------------------------------|
  |
E-----------------------------------------------------------------|
B--0---0-3---0-0---0---0-1---0-0---0---0-3---0-0---0---0-1---0-0--|
GuitarG-----------------------------------------------------------------|
D-----------------------------------------------------------------|x1
A-----------------------------------------------------------------|
E-----------------------------------------------------------------|
      |
E-----------------------------------------------------------------|
SynthB-----------------------------------------------------------------|
Arr.G-----------------------------------------------------------------|
for GtrD-16-----------------------------17-------------------------------|
A-14--------------------------------------------------------------|
E-----------------------------------------------------------------|
         




Piano E-----------------------------------------------------------------|
Arr.B-----------------------------------------------------------------|
for Gtr  G-----------------------------------------------------------------|
0:38-D------7---5---4-------7---5---4-------7---5---4-------7---5---4--|
0:42A--7---------------7---------------7---------------7--------------|
E-----------------------------------------------------------------|
  |
E-----------------------------------------------------------------|
B--0---0-3---0-0---0---0-1---0-0---0---0-3---0-0---0---0-1---0-0--|
GuitarG-----------------------------------------------------------------|
D-----------------------------------------------------------------|x1
A-----------------------------------------------------------------|
E-----------------------------------------------------------------|
      |
E-----------------------------------------------------------------|
SynthB-----------------------------------------------------------------|
Arr.G-----------------------------------------------------------------|
for GtrD--12-----------------------------9-------------------------------|
A-----------------------------------------------------------------|
E-----------------------------------------------------------------|
   




Piano E-----------------------------------------------------------------|
Arr.B-----------------------------------------------------------------|
for Gtr  G-----------------------------------------------------------------|
0:42-D------7---5---4-------7---5---4-------7---5---4-------7---5---4--|
0:47A--7---------------7---------------7---------------7--------------|
E-----------------------------------------------------------------|
  |
E-----------------------------------------------------------------|
B--0---0-3---0-0---0---0-1---0-0---0---0-3---0-0---0---0-1---0-0--|
GuitarG-----------------------------------------------------------------|
D-----------------------------------------------------------------|x1
A-----------------------------------------------------------------|
E-----------------------------------------------------------------|
      |
E-----------------------------------------------------------------|
SynthB-----------------------------------------------------------------|
Arr.G-----------------------------------------------------------------|
for GtrD--7------------------------------5-------------------------------|
A-----------------------------------------------------------------|
E-----------------------------------------------------------------|
   




Piano E-----------------------------------------------------------------|
Arr.B-----------------------------------------------------------------|
for Gtr  G-----------------------------------------------------------------|
0:47-D------7---5---4-------7---5---4-------7---5---4-------7---5---4--|
0:52A--7---------------7---------------7---------------7--------------|
E-----------------------------------------------------------------|
  |
E-----------------------------------------------------------------|
B--0----5-3-3-5----0----5-3-3-5----0----5-3-3-5----0----5-3-3-5---|
GuitarG-----------------------------------------------------------------|
D-----------------------------------------------------------------|x1
A-----------------------------------------------------------------|
E-----------------------------------------------------------------|
      |
E-----------------------------------------------------------------|
SynthB-----------------------------------------------------------------|
Arr.G----------------------------------12-------------11--------------|
for GtrD------------------12-------------------------------------14------|
A-14--------------------------------------------------------------|
E-----------------------------------------------------------------|
  




Piano E-----------------------------------------------------------------|
Arr.B-----------------------------------------------------------------|
for Gtr  G-----------------------------------------------------------------|
0:52-D------7---5---4-------7---5---4-------7---5---4-------7---5---4--|
0:57A--7---------------7---------------7---------------7--------------|
E-----------------------------------------------------------------|
  |
E-----------------------------------------------------------------|
B--0----5-3-3-5----0----5-3-3-5----0----5-3-3-5----0----5-3-3-5---|
GuitarG-----------------------------------------------------------------|
D-----------------------------------------------------------------|x1
A-----------------------------------------------------------------|
E-----------------------------------------------------------------|
      |
E-----------------------------------------------------------------|
SynthB-----------------------------------------------------------------|
Arr.G-----------------------------------------------------------------|
for GtrD------------------12--------------12-----------------------------|
A-14--------------------------------------------------------------|
E-----------------------------------------------------------------|
  




Piano E-----------------------------------------------------------------|
Arr.B-----------------------------------------------------------------|
for Gtr  G-----------------------------------------------------------------|
0:57-D------7---5---4-------7---5---4-------7---5---4-------7---5---4--|
1:02A--7---------------7---------------7---------------7--------------|
E-----------------------------------------------------------------|
  |
E-----------------------------------------------------------------|
B--0----5-3-3-5----0----5-3-3-5----0----5-3-3-5----0----5-3-3-5---|
GuitarG-----------------------------------------------------------------|
D-----------------------------------------------------------------|x1
A-----------------------------------------------------------------|
E-----------------------------------------------------------------|
      |
E-----------------------------------------------------------------|
SynthB-----------------------------------------------------------------|
Arr.G----------------------------------12-------------11--------------|
for GtrD------------------12-------------------------------------12------|
A-14--------------------------------------------------------------|
E-----------------------------------------------------------------|
  



Piano E-----------------------------------------------------------------|
Arr.B-----------------------------------------------------------------|
for Gtr  G-----------------------------------------------------------------|
1:02-D------7---5---4-------7---5---4-------7---5---4-------7---5---4--|
1:11A--7---------------7---------------7---------------7--------------|
E-----------------------------------------------------------------|
  |
E-----------------------------------------------------------------|
B--0----5-3-3-5----0----5-3-3-5----0----5-3-3-5----0----5-3-3-5---|
GuitarG-----------------------------------------------------------------|
D-----------------------------------------------------------------|x2
A-----------------------------------------------------------------|
E-----------------------------------------------------------------|
      |
E-----------------------------------------------------------------|
SynthB-----------------------------------------------------------------|
Arr.G-----------------------------------------------------------------|
for GtrD-14-------------------------------12-----------------------------|
A-----------------------------------------------------------------|
E-----------------------------------------------------------------|
    I'm   brea-  king        the   ha-    bit         



Piano E-----------------------------------------------------------------|
Arr.B-----------------------------------------------------------------|
for Gtr  G-----------------------------------------------------------------|
1:11-D------7---5---4-------7---5---4-------7---5---4-------7---5---4--|
1:16A--7---------------7---------------7---------------7--------------|
E-----------------------------------------------------------------|
  |x1
E-----------------------------------------------------------------|
B--0---0-3---0-0---0---0-1---0-0---0---0-3---0-0---0---0-1---0-0--|
GuitarG-----------------------------------------------------------------|
D-----------------------------------------------------------------|
A-----------------------------------------------------------------|
E-----------------------------------------------------------------|



Piano E-----------------------------------------------------------------|
Arr.B-----------------------------------------------------------------|
for Gtr  G-----------------------------------------------------------------|
1:16-D------7---5---4-------7---5---4-------7---5---4-------7---5---4--|
1:21A--7---------------7---------------7---------------7--------------|
E-----------------------------------------------------------------|
  |
E-----------------------------------------------------------------|
B--0---0-3---0-0---0---0-1---0-0---0---0-3---0-0---0---0-1---0-0--|
GuitarG-----------------------------------------------------------------|
D-----------------------------------------------------------------|x1
A-----------------------------------------------------------------|
E-----------------------------------------------------------------|
          |
E-----------------------------------------------------------------|
SynthB-----------------------------------------------------------------|
Arr.G-----------------------------------------------------------------|
for GtrD---------------------------------14--------------17--------------|
A-----14----------------------------------------------------------|
E---------------------------------12------------------------------|
 



Piano E-----------------------------------------------------------------|
Arr.B-----------------------------------------------------------------|
for Gtr  G-----------------------------------------------------------------|
1:21-D------7---5---4-------7---5---4-------7---5---4-------7---5---4--|
1:26A--7---------------7---------------7---------------7--------------|
E-----------------------------------------------------------------|
  |
E-----------------------------------------------------------------|
B--0---0-3---0-0---0---0-1---0-0---0---0-3---0-0---0---0-1---0-0--|
GuitarG-----------------------------------------------------------------|
D-----------------------------------------------------------------|x1
A-----------------------------------------------------------------|
E-----------------------------------------------------------------|
      |
E-----------------------------------------------------------------|
SynthB-----------------------------------------------------------------|
Arr.G-----------------------------------------------------------------|
for GtrD-16-----------------------------17-------------------------------|
A-14--------------------------------------------------------------|
E-----------------------------------------------------------------|
      



Piano E-----------------------------------------------------------------|
Arr.B-----------------------------------------------------------------|
for Gtr  G-----------------------------------------------------------------|
1:26-D------7---5---4-------7---5---4-------7---5---4-------7---5---4--|
1:31A--7---------------7---------------7---------------7--------------|
E-----------------------------------------------------------------|
  |
E-----------------------------------------------------------------|
B--0---0-3---0-0---0---0-1---0-0---0---0-3---0-0---0---0-1---0-0--|
GuitarG-----------------------------------------------------------------|
D-----------------------------------------------------------------|x1
A-----------------------------------------------------------------|
E-----------------------------------------------------------------|
         |
E-----------------------------------------------------------------|
SynthB-----------------------------------------------------------------|
Arr.G-----------------------------------------------------------------|
for GtrD---------------------------------14--------------17--------------|
A-----14----------------------------------------------------------|
E---------------------------------12------------------------------|
 




Piano E-----------------------------------------------------------------|
Arr.B-----------------------------------------------------------------|
for Gtr  G-----------------------------------------------------------------|
1:31-D------7---5---4-------7---5---4-------7---5---4-------7---5---4--|
1:35A--7---------------7---------------7---------------7--------------|
E-----------------------------------------------------------------|
  |
E-----------------------------------------------------------------|
B--0---0-3---0-0---0---0-1---0-0---0---0-3---0-0---0---0-1---0-0--|
GuitarG-----------------------------------------------------------------|
D-----------------------------------------------------------------|x1
A-----------------------------------------------------------------|
E-----------------------------------------------------------------|
      |
E-----------------------------------------------------------------|
SynthB-----------------------------------------------------------------|
Arr.G-----------------------------------------------------------------|
for GtrD-16-----------------------------17-------------------------------|
A-14--------------------------------------------------------------|
E-----------------------------------------------------------------|
           


[ Tab from: http://www.guitartabs.cc/tabs/l/linkin_park/breaking_the_habit_tab_ver_2.html ]
Piano E-----------------------------------------------------------------|
Arr.B-----------------------------------------------------------------|
for Gtr  G-----------------------------------------------------------------|
1:35-D------7---5---4-------7---5---4-------7---5---4-------7---5---4--|
1:40A--7---------------7---------------7---------------7--------------|
E-----------------------------------------------------------------|
  |
E-----------------------------------------------------------------|
B--0---0-3---0-0---0---0-1---0-0---0---0-3---0-0---0---0-1---0-0--|
GuitarG-----------------------------------------------------------------|
D-----------------------------------------------------------------|x1
A-----------------------------------------------------------------|
E-----------------------------------------------------------------|
      |
E-----------------------------------------------------------------|
SynthB-----------------------------------------------------------------|
Arr.G-----------------------------------------------------------------|
for GtrD--12-----------------------------9-------------------------------|
A-----------------------------------------------------------------|
E-----------------------------------------------------------------|
   




Piano E-----------------------------------------------------------------|
Arr.B-----------------------------------------------------------------|
for Gtr  G-----------------------------------------------------------------|
1:40-D------7---5---4-------7---5---4-------7---5---4-------7---5---4--|
1:45A--7---------------7---------------7---------------7--------------|
E-----------------------------------------------------------------|
  |
E-----------------------------------------------------------------|
B--0---0-3---0-0---0---0-1---0-0---0---0-3---0-0---0--------------|
GuitarG-----------------------------------------------------------------|
D-----------------------------------------------------------------|x1
A-----------------------------------------------------------------|
E-----------------------------------------------------------------|
      |
E-----------------------------------------------------------------|
SynthB-----------------------------------------------------------------|
Arr.G-----------------------------------------------------------------|
for GtrD--7------------------------------5-------------------------------|
A-----------------------------------------------------------------|
E-----------------------------------------------------------------|
   




Piano E-----------------------------------------------------------------|
Arr.B-----------------------------------------------------------------|
for Gtr  G-----------------------------------------------------------------|
1:45-D------7---5---4-------7---5---4-------7---5---4-------7---5---4--|
1:50A--7---------------7---------------7---------------7--------------|
E-----------------------------------------------------------------|
  |
E-----------------------------------------------------------------|
B--0----5-3-3-5----0----5-3-3-5----0----5-3-3-5----0----5-3-3-5---|
GuitarG-----------------------------------------------------------------|
D-----------------------------------------------------------------|x1
A-----------------------------------------------------------------|
E-----------------------------------------------------------------|
      |
E-----------------------------------------------------------------|
SynthB-----------------------------------------------------------------|
Arr.G----------------------------------12-------------11--------------|
for GtrD------------------12-------------------------------------14------|
A-14--------------------------------------------------------------|
E-----------------------------------------------------------------|




Piano E-----------------------------------------------------------------|
Arr.B-----------------------------------------------------------------|
for Gtr  G-----------------------------------------------------------------|
1:50-D------7---5---4-------7---5---4-------7---5---4-------7---5---4--|
1:55A--7---------------7---------------7---------------7--------------|
E-----------------------------------------------------------------|
  |
E-----------------------------------------------------------------|
B--0----5-3-3-5----0----5-3-3-5----0----5-3-3-5----0----5-3-3-5---|
GuitarG-----------------------------------------------------------------|
D-----------------------------------------------------------------|x1
A-----------------------------------------------------------------|
E-----------------------------------------------------------------|
      |
E-----------------------------------------------------------------|
SynthB-----------------------------------------------------------------|
Arr.G-----------------------------------------------------------------|
for GtrD------------------12--------------12-----------------------------|
A-14--------------------------------------------------------------|
E-----------------------------------------------------------------




Piano E-----------------------------------------------------------------|
Arr.B-----------------------------------------------------------------|
for Gtr  G-----------------------------------------------------------------|
1:55-D------7---5---4-------7---5---4-------7---5---4-------7---5---4--|
1:59A--7---------------7---------------7---------------7--------------|
E-----------------------------------------------------------------|
  |
E-----------------------------------------------------------------|
B--0----5-3-3-5----0----5-3-3-5----0----5-3-3-5----0----5-3-3-5---|
GuitarG-----------------------------------------------------------------|
D-----------------------------------------------------------------|x1
A-----------------------------------------------------------------|
E-----------------------------------------------------------------|
      |
E-----------------------------------------------------------------|
SynthB-----------------------------------------------------------------|
Arr.G----------------------------------12-------------11--------------|
for GtrD------------------12-------------------------------------12------|
A-14--------------------------------------------------------------|
E-----------------------------------------------------------------|
 



Piano E-----------------------------------------------------------------|
Arr.B-----------------------------------------------------------------|
for Gtr  G-----------------------------------------------------------------|
1:59-D------7---5---4-------7---5---4-------7---5---4-------7---5---4--|
2:09A--7---------------7---------------7---------------7--------------|
E-----------------------------------------------------------------|
  |
E-----------------------------------------------------------------|
B--0----5-3-3-5----0----5-3-3-5----0----5-3-3-5----0----5-3-3-5---|
GuitarG-----------------------------------------------------------------|
D-----------------------------------------------------------------|x2
A-----------------------------------------------------------------|
E-----------------------------------------------------------------|
      |
E-----------------------------------------------------------------|
SynthB-----------------------------------------------------------------|
Arr.G-----------------------------------------------------------------|
for GtrD-14-------------------------------12-----------------------------|
A-----------------------------------------------------------------|
E-----------------------------------------------------------------|
    I'm   brea-  king        the    ha-    bit 
        



Piano E-----------------------------------------------------------------|
Arr.B-----------------------------------------------------------------|
for Gtr  G-----------------------------------------------------------------|
2:09-D------7---5---4-------7---5---4-------7---5---4-------7---5---4--|
2:14A--7---------------7---------------7---------------7--------------|
E-----------------------------------------------------------------|
  |
E-----------------------------------------------------------------|
B--0----5-3-3-5----0----5-3-3-5----0----5-3-3-5----0----5-3-3-5---|
GuitarG-----------------------------------------------------------------|
D-----------------------------------------------------------------|x1
A-----------------------------------------------------------------|
E-----------------------------------------------------------------|
 (upper note is synthesizer lower note is grand piano)  |
E-----------------------------------------------------------------|
SynthB-----------------------------------------------------------------|
Arr.G-----------------------------------------------------------------|
for GtrD--14------------------------------16-----------------------------|
A-----------------------------------------------------------------|
E--12------------------------------14-----------------------------|
     




Piano E-----------------------------------------------------------------|
Arr.B-----------------------------------------------------------------|
for Gtr  G-----------------------------------------------------------------|
2:14-D------7---5---4-------7---5---4-------7---5---4-------7---5---4--|
2:19A--7---------------7---------------7---------------7--------------|
E-----------------------------------------------------------------|
           |
E-----------------------------------------------------------------|
B--0----5-3-3-5----0----5-3-3-5----0----5-3-3-5----0----5-3-3-5---|
GuitarG-----------------------------------------------------------------|
D-----------------------------------------------------------------|x1
A-----------------------------------------------------------------|
E-----------------------------------------------------------------|
 (upper note is synthesizer lower note is grand piano)  |
E-----------------------------------------------------------------|
SynthB-----------------------------------------------------------------|
Arr.G-----------------------------------------------------------------|
for GtrD--17------------------------------19-----------------------------|
A-----------------------------------------------------------------|
E--15------------------------------17-----------------------------|
          




Piano E-----------------------------------------------------------------|
Arr.B-----------------------------------------------------------------|
for Gtr  G-----------------------------------------------------------------|
2:19-D------7---5---4-------7---5---4-------7---5---4-------7---5---4--|
2:23A--7---------------7---------------7---------------7--------------|
E-----------------------------------------------------------------|
  |
E-----------------------------------------------------------------|
B--0----5-3-3-5----0----5-3-3-5----0----5-3-3-5----0----5-3-3-5---|
GuitarG-----------------------------------------------------------------|
D-----------------------------------------------------------------|x1
A-----------------------------------------------------------------|
E-----------------------------------------------------------------|
 (upper note is synthesizer lower note is grand piano)  |
E-----------------------------------------------------------------|
SynthB-----------------------------------------------------------------|
Arr.G-----------------------------------------------------------------|
for GtrD--14------------------------------16-----------------------------|
A-----------------------------------------------------------------|
E--12------------------------------14-----------------------------|
        



Piano E-----------------------------------------------------------------|
Arr.B-----------------------------------------------------------------|
for Gtr  G-----------------------------------------------------------------|
2:23-D------7---5---4-------7---5---4-------7---5---4-------7---5---4--|
2:28A--7---------------7---------------7---------------7--------------|
E-----------------------------------------------------------------|
  |
E-----------------------------------------------------------------|
B--0----5-3-3-5----0----5-3-3-5----0----5-3-3-5----0----5-3-3-5---|
GuitarG-----------------------------------------------------------------|
D-----------------------------------------------------------------|x1
A-----------------------------------------------------------------|
E-----------------------------------------------------------------|
 (upper note is synthesizer lower note is grand piano)  |
E-----------------------------------------------------------------|
SynthB-----------------------------------------------------------------|
Arr.G-----------------------------------------------------------------|
for GtrD--17------------------------------19--------------17-------------|
A-----------------------------------------------------------------|
E--15------------------------------17-----------------------------|
    



Piano E-----------------------------------------------------------------|
Arr.B-----------------------------------------------------------------|
for Gtr  G-----------------------------------------------------------------|
2:28-D------7---5---4-------7---5---4-------7---5---4-------7---5---4--|
2:33A--7---------------7---------------7---------------7--------------|
E-----------------------------------------------------------------|
  |
E-----------------------------------------------------------------|
B--0----5-3-3-5----0----5-3-3-5----0----5-3-3-5----0----5-3-3-5---|
GuitarG-----------------------------------------------------------------|
D-----------------------------------------------------------------|x1
A-----------------------------------------------------------------|
E-----------------------------------------------------------------|
      |
E-----------------------------------------------------------------|
SynthB-----------------------------------------------------------------|
Arr.G----------------------------------12-------------11--------------|
for GtrD------------------12-------------------------------------14------|
A-14--------------------------------------------------------------|
E-----------------------------------------------------------------|
  |
GrandE-----------------------------------------------------------------|
PianoB-----------------------------------------------------------------|
Arr.G-----------------------------------------------------------------|
for GtrD-----------------------------------------------------------------|
A------------------3---------------2------------------------------|
E-0---------------------------------------------------------------|
  




Piano E-----------------------------------------------------------------|
Arr.B-----------------------------------------------------------------|
for Gtr  G-----------------------------------------------------------------|
2:33-D------7---5---4-------7---5---4-------7---5---4-------7---5---4--|
2:38A--7---------------7---------------7---------------7--------------|
E-----------------------------------------------------------------|
  |
E-----------------------------------------------------------------|
B--0----5-3-3-5----0----5-3-3-5----0----5-3-3-5----0----5-3-3-5---|
GuitarG-----------------------------------------------------------------|
D-----------------------------------------------------------------|x1
A-----------------------------------------------------------------|
E-----------------------------------------------------------------|
      |
E-----------------------------------------------------------------|
SynthB-----------------------------------------------------------------|
Arr.G-----------------------------------------------------------------|
for GtrD------------------12--------------12-----------------------------|
A-14--------------------------------------------------------------|
E-----------------------------------------------------------------|
  |
GrandE-----------------------------------------------------------------|
PianoB-----------------------------------------------------------------|
Arr.G-----------------------------------------------------------------|
for GtrD-----------------------------------------------------------------|
A------------------3---------------2------------------------------|
E-0---------------------------------------------------------------|
 




Piano E-----------------------------------------------------------------|
Arr.B-----------------------------------------------------------------|
for Gtr  G-----------------------------------------------------------------|
2:38-D------7---5---4-------7---5---4-------7---5---4-------7---5---4--|
2:42A--7---------------7---------------7---------------7--------------|
E-----------------------------------------------------------------|
  |
E-----------------------------------------------------------------|
B--0----5-3-3-5----0----5-3-3-5----0----5-3-3-5----0----5-3-3-5---|
GuitarG-----------------------------------------------------------------|
D-----------------------------------------------------------------|x1
A-----------------------------------------------------------------|
E-----------------------------------------------------------------|
      |
E-----------------------------------------------------------------|
SynthB-----------------------------------------------------------------|
Arr.G----------------------------------11-------------12--------------|
for GtrD------------------12---------------------------------------------|
A-14--------------------------------------------------------------|
E-----------------------------------------------------------------|
  |
GrandE-----------------------------------------------------------------|
PianoB-----------------------------------------------------------------|
Arr.G-----------------------------------------------------------------|
for GtrD-----------------------------------------------------------------|
A------------------3---------------2------------------------------|
E-0---------------------------------------------------------------|
   



Piano E-----------------------------------------------------------------|
Arr.B-----------------------------------------------------------------|
for Gtr  G-----------------------------------------------------------------|
2:42-D------7---5---4-------7---5---4-------7---5---4-------7---5---4--|
2:58A--7---------------7---------------7---------------7--------------|
E-----------------------------------------------------------------|
  |
E-----------------------------------------------------------------|
B--0----5-3-3-5----0----5-3-3-5----0----5-3-3-5----0----5-3-3-5---|
GuitarG-----------------------------------------------------------------|
D-----------------------------------------------------------------|
A-----------------------------------------------------------------|
E-----------------------------------------------------------------|
      |x1
E-----------------------------------------------------------------|
SynthB-----------------------------------------------------------------|
Arr.G-14--------------------------------------------------------------|
for GtrD----------------------------------12--------------16-------------|
A-----------------------------------------------------------------|
E-----------------------------------------------------------------|
  |
GrandE-----------------------------------------------------------------|
PianoB-----------------------------------------------------------------|
Arr.G-----------------------------------------------------------------|
for GtrD-----------------------------------------------------------------|
A--2-------------------------------5------------------------------|
E-----------------------------------------------------------------|
      



Piano E-----------------------------------------------------------------|
Arr.B-----------------------------------------------------------------|
for Gtr  G-----------------------------------------------------------------|
2:42-D------7---5---4-------7---5---4-------7---5---4-------7---5---4--|
2:58A--7---------------7---------------7---------------7--------------|
E-----------------------------------------------------------------|
  |
E-----------------------------------------------------------------|
B--0----5-3-3-5----0----5-3-3-5----0----5-3-3-5----0----5-3-3-5---|
GuitarG-----------------------------------------------------------------|
D-----------------------------------------------------------------|x2
A-----------------------------------------------------------------|
E-----------------------------------------------------------------|
    |
E-----------------------------------------------------------------|
SynthB-----------------------------------------------------------------|
Arr.G-----------------------------------------------------------------|
for GtrD-14-------------------------------12--------------16-------------|
A-----------------------------------------------------------------|
E-----------------------------------------------------------------|
  |
GrandE-----------------------------------------------------------------|
PianoB-----------------------------------------------------------------|
Arr.G-----------------------------------------------------------------|
for GtrD-----------------------------------------------------------------|
A--2-------------------------------5------------------------------|
E-----------------------------------------------------------------|
    I'm   brea-  king        the    ha-    bit 
  


  
Piano E-----------------------------------------------------------------|
Arr.B-----------------------------------------------------------------|
for Gtr  G-----------------------------------------------------------------|
2:57-D------7---5---4-------7---5---4-------7---5---4-------7---5---4--|
3:02A--7---------------7---------------7---------------7--------------|
E-----------------------------------------------------------------|
     |x1
E-----------------------------------------------------------------|
SynthB-----------------------------------------------------------------|
Arr.G-----------------------------------------------------------------|
for GtrD--14-------------------------------------------------------------|
A-----------------------------------------------------------------|
E-----------------------------------------------------------------|


   (This part gradually fades out over next 3 verses
Piano E-----------------------------------------------------------------|
Arr.B-----------------------------------------------------------------|
for Gtr  G-----------------------------------------------------------------|
3:02-D------7---5---4-------7---5---4-------7---5---4-------7---5---4--|
endA--7---------------7---------------7---------------7--------------|
E-----------------------------------------------------------------|
  |x3
E-----------------------------------------------------------------|
SynthB-----------------------------------------------------------------|
Arr.G-----------------------------------------------------------------|
for GtrD--(14)-----------------------------------------------------------|
A-----------------------------------------------------------------|
E-----------------------------------------------------------------|
Comments