Linkin Park - Bleed It Out Chords & Tabs

 

Linkin Park Chords & Tabs

Version: 1 Type: Tab 0 ratings
1 star 2 stars 3 stars 4 stars 5 stars
comments

Bleed It Out Tab

Listen carefully for the Rhythm 

repeat x3
e|-9------9------9----9-9-9----9----9-9--7-------7-------7-----7-7-7-7-5-5-5-5-----|
B|---7-7----7-7----7---------7----7---------7-7-----7-7-----7----------------------|
G|---------------------------------------------------------------------------------|
D|---------------------------------------------------------------------------------|
A|---------------------------------------------------------------------------------|
E|---------------------------------------------------------------------------------|


[ Tab from: http://www.guitartabs.cc/tabs/l/linkin_park/bleed_it_out_tab.html ]
e|--------------------------------------9-------9-----9-----9-9-9-9-9-9\2/9--|
B|--7-7-7-7------7-7--9-9-9-9-----9-9------7-7----7-7---7--------------------|
G|-----------7-7--------------9-9--------------------------------------------|
D|---------------------------------------------------------------------------|
A|---------------------------------------------------------------------------|
E|---------------------------------------------------------------------------|




e|----------------------------------------7-------7------7---7-7-7-7-5-5-5-5-|
B|--7-7-7-7------7-7--9-9-9-9-----9-9--------7-7----7-7----7-----------------|
G|-----------7-7--------------9-9--------------------------------------------|
D|---------------------------------------------------------------------------|
A|---------------------------------------------------------------------------|
E|---------------------------------------------------------------------------|
Comments