Linkin Park - Blackbirds Chords & Tabs

 

Blackbirds Chords & Tabs

Linkin Park Chords & Tabs

Version: 1 Type: Tab 0 ratings
1 star 2 stars 3 stars 4 stars 5 stars
comments

Blackbirds Tab

-----------------------------------------------------------------------------
			    Blackbirds - Linkin Park
-----------------------------------------------------------------------------
Tabbed by: Emmanuel Morales
Email: randomdudeof2010@gmail.com

This is my tab for the song Blackbirds by Linkin Park which is featured in the game: 
Park 8-Bit Rebellion.

The first day I heard this song I tabbed it for you guys, enjoy!!


Tuning: Standard

(Intro, First Verse and First Chorus)
e|---------------------------------|
B|---------------------------------|
G|-7---7---7---7---7---7---7---7---| Play this riff 12 times
D|---7---7---7---7---7---7---7---7-|
A|---------------------------------|
E|---------------------------------|


(Second Verse)
e|-----------5---------------5---------------5-------8---8------------|
B|---6---8-------6---6---8-------6---6---8-------6-----------8---8----|
G|-7---7---7---7---7---7---7---7---7---7---7---7---7---7---7---7------|
D|--------------------------------------------------------------------|
A|--------------------------------------------------------------------|
E|--------------------------------------------------------------------|

e|-----------5---------------5---------------5-------8---8------------|
B|---6---8-------6---6---8-------6---6---8-------6-----------8---8----|
G|-7---7---7---7---7---7---7---7---7---7---7---7---7---7---7---7------|
D|--------------------------------------------------------------------|
A|--------------------------------------------------------------------|
E|--------------------------------------------------------------------|

e|-----------5---------------5---------------5-------8---8------------|
B|---6---8-------6---6---8-------6---6---8-------6-----------8---8----|
G|-7---7---7---7---7---7---7---7---7---7---7---7---7---7---7---7------|
D|--------------------------------------------------------------------|
A|--------------------------------------------------------------------|
E|--------------------------------------------------------------------|

e|-----------5---------------5---------------5-------8---8------------|
B|---6---8-------6---6---8-------6---6---8-------6-----------8--------|
G|-7---7---7---7---7---7---7---7---7---7---7---7---7---7---7----------|
D|--------------------------------------------------------------------|
A|--------------------------------------------------------------------|
E|--------------------------------------------------------------------|


(Second Chorus)
e|-----------5---------------5---------------5-------8---8------------|
B|---6---8-------6---6---8-------6---6---8-------6-----------8---8----|
G|-7---7---7---7---7---7---7---7---7---7---7---7---7---7---7---7------|
D|--------------------------------------------------------------------|
A|--------------------------------------------------------------------|
E|--------------------------------------------------------------------|
[ Tab from: http://www.guitartabs.cc/tabs/l/linkin_park/blackbirds_tab.html ]
e|-----------5---------------5---------------5-------8---8------------|
B|---6---8-------6---6---8-------6---6---8-------6-----------8---8----|
G|-7---7---7---7---7---7---7---7---7---7---7---7---7---7---7---7------|
D|--------------------------------------------------------------------|
A|--------------------------------------------------------------------|
E|--------------------------------------------------------------------|

e|-----------5-------8---8---------|
B|---6---8-------6-----------8---8-|
G|-7---7---7---7---7---7---7---7---|
D|---------------------------------|
A|---------------------------------|
E|---------------------------------|


(Second half of rap verse)
e|--------------------------------------------------------------------|
B|--------------------------------------------------------------------|
G|7-7-7-7-7-7-7-7-7-7-7-7-7-7-7-7-7-7-7-7-7-7-7-7-7-7-7-7-7-7---------|
D|7-7-7-7-7-7-7-7-7-7-7-7-7-7-7-7-7-7-7-7-7-7-7-7-7-7-7-7-7-7---------|
A|5-5-5-5-5-5-5-5-5-5-5-5-5-5-5-5-5-5-5-5-5-5-5-5-5-5-5-5-5-5---------|
E|--------------------------------------------------------------------|
PM. . . . . . . . . . . . . . . . . . . . . . . . . . . . . .


Final Chorus
e|-----------5---------------5---------------5-------8---8------------|
B|---6---8-------6---6---8-------6---6---8-------6-----------8---8----|
G|-7---7---7---7---7---7---7---7---7---7---7---7---7---7---7---7------|
D|--------------------------------------------------------------------|
A|--------------------------------------------------------------------|
E|--------------------------------------------------------------------|

e|-----------5---------------5---------------5-------8---8------------|
B|---6---8-------6---6---8-------6---6---8-------6-----------8---8----|
G|-7---7---7---7---7---7---7---7---7---7---7---7---7---7---7---7------|
D|--------------------------------------------------------------------|
A|--------------------------------------------------------------------|
E|--------------------------------------------------------------------|
		   *Notice that the riff changes from here on
e|-----------5-------8---8-------------------5---------------5--------|
B|---6---8-------6-----------8---8---6---8-------6---6---8-------6----|
G|-7---7---7---7---7---7---7---7---7---7---7---7---7---7---7---7------|
D|--------------------------------------------------------------------|
A|--------------------------------------------------------------------|
E|--------------------------------------------------------------------|

e|-----------5-------8---8-------------------5---------------5--------|
B|---6---8-------6-----------8---8---6---8-------6---6---8-------6----|
G|-7---7---7---7---7---7---7---7---7---7---7---7---7---7---7---7------|
D|--------------------------------------------------------------------|
A|--------------------------------------------------------------------|
E|--------------------------------------------------------------------|

e|-----------5-------8---8-----------|
B|---6---8-------6-----------8---8---|
G|-7---7---7---7---7---7---7---7---7-|
D|-----------------------------------|
A|-----------------------------------|
E|-----------------------------------|

Tabbed by Emmanuel Morales
Comments