Linkin Park - And One Chords & Tabs

 

And One Chords & Tabs

Linkin Park Chords & Tabs

Version: 1 Type: Bass Tab 0 ratings
1 star 2 stars 3 stars 4 stars 5 stars
comments

And One Bass Tab

   
Band- Linkin Park
Song- And One
Album- Hybrid Theory EP
Tuning- B,E,A,D,G

Intro: No bass

Verse:
G|-------------------------------------------|
D|-------------------------------------------|
A|-----------------------------7-------------|
E|-------------5-5-5-5-----------------------|
B|-----2-2-2---------------------------------|
[ Tab from: http://www.guitartabs.cc/tabs/l/linkin_park/and_one_btab.html ]
Chorus:
G|------------------------------------------|
D|------------------------------------------|
A|------------------------------------------|
E|-----------5*-----------------------------|   *= play note alot
B|----2*----------5*----------3*------------|

Bridge:
G|-----------------------------------------|
D|-----------------------------------------|
A|-----------------------------------------|
E|-----------------------------------------|
B|----------------2------------------------| let C sharp ring for whole part

Breakdown:
G|------------------------------------------|
D|------------------------------------------|
A|------------------------------------------|
E|------------------------------------------|
B|----2--2--2-2-----------------------------| really fast.
Go to verse after this.

Outro: No bass. (Joe does his thing)
Comments