Linkin Park - A-six Chords & Tabs

 

A-six Chords & Tabs

Linkin Park Chords & Tabs

Version: 1 Type: Tab 0 ratings
1 star 2 stars 3 stars 4 stars 5 stars
comments

A-six Tab

I think its pretty accurate... Not sure about that last part of the song though

|-----------------------------------------------------------------------|
|-----------------------------------------------------------------------|
|-----------------------------------------------------------------------|
|-----------------------------------------------------------------------|
|-----------------------------------------------------------------------|
|--8-7-0-0-1-0-0---0-1-0-1-0-0-0----------------------------------------| x8

This is the part after the pause in the beginning, this is the same for the
“verses” too
[ Tab from: http://www.guitartabs.cc/tabs/l/linkin_park/a_six_tab.html ]
|-----------------------------------------------------------------------|
|-----------------------------------------------------------------------|
|-----------------------------------------------------------------------|
|-----------------------------------------------------------------------|
|-----------------------------------------------------------------------|
|--8-7-0--8-7-0-0--8-7-8-7-0--------------------------------------------|


This is the part that sounds like the chorus
|-----------------------------------------------------------------------|
|-----------------------------------------------------------------------|
|-----------------------------------------------------------------------|
|-----------------------------------------------------------------------|
|-----------------------------------------------------------------------|
|--8-7-0--8-8-3-3-3-7-8--2-3-3-3-3-2-3-5-5-5-5--8-7---------------------|


And this is that last part
|-----------------------------------------------------------------------|
|-----------------------------------------------------------------------|
|-----------------------------------------------------------------------|
|-------------------------10--------------------------------------------|
|-----------------------------------------------------------------------|
|--5-7-5-0-1-0--0-1-0-1-0-----------------------------------------------|
Comments