Linkin Park - A Place For My Head Chords & Tabs

 

A Place For My Head Chords & Tabs

Linkin Park Chords & Tabs

Version: 9 Type: Tab 0 ratings
1 star 2 stars 3 stars 4 stars 5 stars
comments

A Place For My Head Tab

from dennym kara" 
Subject: l/linkin_park/a_place_for_my_head.tab
Date: Sun, 27 Jan 2002 19:34:04 -0400

Song: A Place for My Head
Artist: Linkin Park
Album: Hybrid Theory (2000)

Dropped D and tune down 1/2 step
m = palm mute

Verse 1                                   Fill
eb--------------------------------------|
Bb--------------------------------------|
Gb-------3-3-3-4-3-1--------------------|
Db--1-1--------------4-4--2-2-4--2--1---|
Ab--------------------------------------|
Db--------------------------------------|
Chorus
eb---------------------------------------------------------
Bb---------------------------------------------------------
Gb---------------------------------------------------------
Db--2-2---9-10-9--5-5--3-3-3-5-----------------------------
Ab--2-2---9-10-9--5-5--3-3-3-5-----------------------------
Db--2-2---9-10-9--5-5--3-3-3-5-----------------------------
[ Tab from: http://www.guitartabs.cc/tabs/l/linkin_park/a_place_for_my_head_tab_ver_9.html ]
Verse 2
eb---------------------------------------------------------
Bb---------------------------------------------------------
Gb---------------------------------------------------------
Db--2-2----12----2----12---12-12-12-12-12------------------
Ab--2-2----10----2----10---10-10-10-10-10------------------
Db--2-2----10----2----10---10-10-10-10-10------------------

Bridge
eb---------------------------------------------------------
Bb---------------------------------------------------------
Gb---------------------------------------------------------
Db--2m-2m--2m-2m-2m-2m--2m-2m-2m--2m-2m-2m-2m--12----------
Ab--2m-2m--2m-2m-2m-2m--2m-2m-2m--2m-2m-2m-2m--10----------
Db--2m-2m--2m-2m-2m-2m--2m-2m-2m--2m-2m-2m-2m--10----------

Outro
eb---------------------------------------------------------
Bb---------------------------------------------------------
Gb--4-4--4-4-4-4--4-4-4--4-4-4----12\----------------------
Db--2-2--2-2-2-2--2-2-2--2-2-2-0--12\----------------------
Ab--2-2--2-2-2-2--2-2-2--2-2-2-0--10\----------------------
Db--2-2--2-2-2-2--2-2-2--2-2-2-0--10\----------------------

Verse 1 (palm muted)
Verse 1
Chorus
Verse 1
Verse 2
Chorus
Break
Chorus
Bridge
Outro
Comments