Linkin Park - A Place For My Head Chords & Tabs

 

A Place For My Head Chords & Tabs

Linkin Park Chords & Tabs

Version: 8 Type: Tab 0 ratings
1 star 2 stars 3 stars 4 stars 5 stars
comments

A Place For My Head Tab

   
Linkin Park
Song Title   - A Place For My Head
From Album   - Hybrid Theory
Author       - Brad Delson
Tabbed by    - Jeremy Zavitz
Tuning       - E,A,D,G,B,E (standard)

h = Hammer on
p = Pull off
b = Bend down 
| = Showing where to bend down and how far the depth should go.
/ = Showing the note come back up and how fast to release it.
: = Heavy Palm Mute
; = Light palm mute
. = Don't let ring

Note: I added a lot of hammer on's in because it makes the song soudn a lot
better, same with the pull offs. If you don't like then it sounds fine if you
ignore it. 

  Intro                       4x
e|------------------------------|
B|------------------------------|
G|-----4-4-5-4-2----------------| 
D|-2-2-----------5-5-3-3-3-3-5--|
A|------------------------------|
E|------------------------------|
               p     h h h h 
                              4x
 |------------------------------|
 |------------------------------|
 |-----4-4-5-4-2----------------|
 |-2-2-----------5-5-3-3-3-3-5--|
 |-2-2--------------------------|
 |-2-2--------------------------|
   h h         p     h h h h 
     
  Verse 1                     6x
 |-----4-4-5-4-2----------------|
 |-2-2-----------5-5-3-3-3-3-5--|
 |------------------------------|
 |------------------------------|
 |------------------------------| 
 |------------------------------|
   h h               h h h h
  Chorus                    4x
 |----------------------------|
 |----------------------------|
 |----------------------------|
 |-2-2-9-9-10-7-5-5-3-3-3-3-5-|
 |-2-2-9-9-10-7-5-5-3-3-3-3-5-|
 |-0-0-7-7--8-5-3-3-1-1-1-1-3-|
    Hammer the whole chorus
[ Tab from: http://www.guitartabs.cc/tabs/l/linkin_park/a_place_for_my_head_tab_ver_8.html ]
  Leading Into Verse 2
 |------------------------------|
 |---------------5-5-3-3-3-3-5--|
 |-----4-4-5-4-2----------------|
 |-2-2--------------------------|
 |------------------------------|
 |------------------------------|
                 h h h h h h h

  Verse 2 (repeat verse 1  4x)

 
  Prechorus       1x (slide into chorus from last power chord)
 |------------------|
 |------------------| 
 |------------------|
 |-5~-3~-5~-3~/12\--|
 |-5~-3~-5~-3~/12\--| 
 |-3~-1~-3~-1~/10\--|
   h     h      h

  Repeat Chorus 4x

 Verse 3 (This is bass in the song but you can do it fine with guitar) 
                                         1x
 |-----------------------------------------|
 |-----------------------------------------| 
 |-----------------------------------------|
 |-----------------------------------------|
 |-----------------------------------------| 
 |-0-0---0-0------0-0---0-0------0-0-------|
   . .   . .      . .   . .      . .   

 Repeat Chorus x4                                


Play section 2 once after playing section 1 8x
                      
                   
                       Bend Down   Release  
  Outro (section 1)        ^      ^           section 2
 |-------------------------|-0---/--|---------------------------|
 |-------------------------|-0--/---|---------------------------| 
 |-------------------------|-0-/----|---------------------------|
 |-2-2--2-2-2--2-2-2--2-2-2|__/-----|-(2-2--2-2-2--2~-2-2-2-2)--|
 |-2-2--2-2-2--2-2-2--2-2-2---------|-(2-2--2-2-2--2~-2-2-2-2)--| 
 |-0-0--0-0-0--0-0-0--0-0-0---------|-(0-0--0-0-0--0~-0-0-0-0)--|
   h    h h    h h    h h    h         h h  h h h  h  h h h h             
                                                ;  ;  ; ;
Comments