Linkin Park - A Place For My Head Chords & Tabs

 

A Place For My Head Chords & Tabs

Linkin Park Chords & Tabs

Version: 6 Type: Tab 0 ratings
1 star 2 stars 3 stars 4 stars 5 stars
comments

A Place For My Head Tab

   
Title:A Place For My Head
Tunning:Dropped D one half step down
C# G# C# F# A# D#

Intro and Verse:
x|-------------------------------|x
x|-------------------------------|x
x|------444-5-4-2----------------|x
x|-2--2-----------5--5-333-3-3-5-|x
x|-------------------------------|x
x|-------------------------------|x
[ Tab from: http://www.guitartabs.cc/tabs/l/linkin_park/a_place_for_my_head_tab_ver_6.html ]
Chorus:
x|--------------------------|x
x|--------------------------|x
x|--------------------------|x
x|-2--2--999-10-9-7-5-333-5-|x  <--Four times
x|-2--2--999-10-9-7-5-333-5-|x
x|-2--2--999-10-9-7-5-333-5-|x


Play the VERSE and the CHORUS

and then...

Bridge:
x|------------------|x
x|------------------|x
x|--------------5---|x
x|-22-2222-2222-5---|x  <---- Play this 8 times.
x|-22-2222-2222-3---|x
x|-22-2222-2222-----|x
Comments