Linkin Park - A Place For My Head Chords & Tabs

 

A Place For My Head Chords & Tabs

Linkin Park Chords & Tabs

Version: 2 Type: Tab 0 ratings
1 star 2 stars 3 stars 4 stars 5 stars
comments

A Place For My Head Tab

Linkin Park, A Place For My Head.
Tabbed by flik3@hotmail.com.
  
Artist: Linkin Park
Song: A Place For My Head
Album: Hybrid Theory
Tabbed by:  Rick Thornburgh


Dropped D tuning (DADGBE)

Intro/verse
e-|-----------------------------------------------
B-|-----------------------------------------------
G-|------3-3-3--4-3-1-----------------------------
D-|-1--1--------------4--4--2-2-2-2-2-4--1--------
A-|-----------------------------------------------
D-|-----------------------------------------------
[ Tab from: http://www.guitartabs.cc/tabs/l/linkin_park/a_place_for_my_head_tab_ver_2.html ]
Verse when the vocals come in and it goes
distorted, it changes a little like this:
e-|-----------------------------------------------
B-|-----------------------------------------------
G-|-------3-4-3-1---------------------------------
D-|-1--1------------4-4--2-2--4-1-----------------
A-|-----------------------------------------------
D-|-----------------------------------------------

Chorus
e-|-----------------------------------------------
B-|-----------------------------------------------
G-|-----------------------------------------------
D-|-1-1-1-8-9-8-6-4--4-2-2-2-2-4-1----------------
A-|-1-1-1-8-9-8-6-4--4-2-2-2-2-4-1----------------
D-|-1-1-1-8-9-8-6-4--4-2-2-2-2-4-1----------------

End Part
e-|-----------------------------------------------
B-|-----------------------------------------------
G-|-----------------------------------------------
D-|---1-1--1-1-1--1-1-1--1-1-1-4------------------
A-|---1-1--1-1-1--1-1-1--1-1-1-4------------------
D-|---1-1--1-1-1--1-1-1--1-1-1-4------------------
-p.m. - -  - - -  - - -  - - -

Order:
Intro 8x
Verse 6x
Chorus 4x
Verse 6x
Chorus 4x
Quiet part 4x ("You try to take the best of me, go away")
Chorus 8x
End Part 8x

 
:: Ultimate Guitar Archive :: 
http://www.ultimate-guitar.com 

Comments