Linkin Park - A Place For My Head Chords & Tabs

 

A Place For My Head Chords & Tabs

Linkin Park Chords & Tabs

Version: 11 Type: Tab 0 ratings
1 star 2 stars 3 stars 4 stars 5 stars
comments

A Place For My Head Tab

linkin park
a place for my head
hybrid theory

sum of the ova tabbs seem a lil skechty 2 me so this is how i play this song! hope it helps

intro
e|--------------------------------------|
B|--------------------------------------|
G|--------------------------------------|
D|--8-8-8-9-8-6-------------------------|x4
A|--------------9-9-7-7-9-7-------------|
E|--------------------------------------|

(0;13)
e|-----------------------------------------|
B|-----------------------------------------|
G|-----------------------------------------|
D|-----8-8-8-9-8-6-------------------------|x4
A|-6-6-------------9-9-7-7-9-7-------------|
E|-----------------------------------------|

verse straight intro (0.26) very distored!
e|----------------------------|
B|----------------------------|
G|----------------------------|
D|--8~8-9-8-6-----------------|x6
A|--------------9-9-7-7-9-----|
E|----------------------------|

chorus  (0.50)
e|-------------------------------------|
B|-------------------------------------|
G|-------------------------------------|
D|-1-1-1-8-9-8-6-4--4-2-2-2-2-4-1------|
A|-1-1-1-8-9-8-6-4--4-2-2-2-2-4-1------|
E|-1-1-1-8-9-8-6-4--4-2-2-2-2-4-1------|

(1:03) straight after chorus. played clean!
e|-----------------|
B|-----------------|
G|-----------------|
D|--8-8-8-9-8-6----|
A|-----------------|
E|-----------------|
[ Tab from: http://www.guitartabs.cc/tabs/l/linkin_park/a_place_for_my_head_tab_ver_11.html ]
verse 2(1:06)distort ~~~~~~~~~~x3~~~~~~~~
e|-----------|---------------------------|
B|-----------|---------------------------|
G|-----------|---------------------------|
D|-----------|-8~8-9-8-6-----------------|
A|-9-9-7-7-9-|-------------9-9-7-7-9-----|
E|-----------|---------------------------|

pre chorus (1:19)
  ~~~~x2~~~~
e|----------|------|
B|----------|------|
G|----------|------|
D|--1~~~3~~~|/5~~~-|
A|--1~~~3~~~|/5~~~-|
E|--1~~~3~~~|/5~~~-|

chorus (1.32)
e|-------------------------------------|
B|-------------------------------------|
G|-------------------------------------|
D|-1-1-1-8-9-8-6-4--4-2-2-2-2-4-1------|
A|-1-1-1-8-9-8-6-4--4-2-2-2-2-4-1------|
E|-1-1-1-8-9-8-6-4--4-2-2-2-2-4-1------|

bridge (1.48)
e|-----------------|
B|-----------------|
G|-----------------| x4
D|-----------------|
A|-5*-5*---5*-5*---|

this part is loud n distorted (2:01)
e|--------------------------------------|
B|--------------------------------------|
G|--------------------------------------|x4
D|--------8-9-8-6-----------------------|
A|--6--6------------9-9--7-7--9-6-------|
E|--------------------------------------|

Chorus  (02:15)
e|-------------------------------------|
B|-------------------------------------|
G|-------------------------------------|
D|-1-1-1-8-9-8-6-4--4-2-2-2-2-4-1------|
A|-1-1-1-8-9-8-6-4--4-2-2-2-2-4-1------|
E|-1-1-1-8-9-8-6-4--4-2-2-2-2-4-1------|

End Part(02;45)
e|---------------------------------|
B|---------------------------------|
G|---------------------------------|
D|---1-1--1-1-1--1-1-1--1-1-1-3----|x4
A|---1-1--1-1-1--1-1-1--1-1-1-3----|
E|---1-1--1-1-1--1-1-1--1-1-1-3----|

 thts it it turns out thrs alot more to this song then i first thought!
neway any question email me at alex_jon04@hotmail.com
Comments