Linkin Park - A Place For My Head Chords & Tabs

 

A Place For My Head Chords & Tabs

Linkin Park Chords & Tabs

Version: 1 Type: Tab 0 ratings
1 star 2 stars 3 stars 4 stars 5 stars
comments

A Place For My Head Tab

=Linkin Park - A Place for my Head.
 abbed by Chris Ford  cwjford@aol.com.
  
Linkin Park  A Place For my Head. intro

Tabbed By Chris Ford 

[ Tab from: http://www.guitartabs.cc/tabs/l/linkin_park/a_place_for_my_head_tab.html ]
E-------------------------------
B-------------------------------
G-------------------------------
D-----888-9-8-6-----------------
A-6-6-------------9-9-777-7-7-9-
E-------------------------------
Just repeat this several times, and then 
throughout the song.
The chord in the intro is:
E---------------------------
B---------------------------
G--8-8----------------------
D--8-8----------------------
A--6-6----------------------
E--6-6----------------------

 
:: Ultimate Guitar Archive :: 
hhtp://www.ultimate-guitar.com 

Comments