Linkin Park - A Place For My Head Chords & Tabs

 

A Place For My Head Chords & Tabs

Linkin Park Chords & Tabs

Version: 4 Type: Bass Tab 0 ratings
1 star 2 stars 3 stars 4 stars 5 stars
comments

A Place For My Head Bass Tab

   
A Place for My Head by Linkin Park
Drop D Tuning (D, A, D, G)
No Bass until (0.14)

(Intro)
G:--------------------------|
D:--------------------------|
A:--------------------------|
D:--1-1---1-1---1-1---1-1---|

(Verse)
G:-----------------------------------|
D:-----------------------------------|  x4
A:-----------------------------------|
D:--1--1-1--1--4-4--6-6-6-6----------|

G:-----------------------------|
D:--8-9-8--6-------------------|  x4
A:6----------9-9--7-7-7--9-6---|
D:-----------------------------|
[ Tab from: http://www.guitartabs.cc/tabs/l/linkin_park/a_place_for_my_head_btab_ver_4.html ]
(Verse 2)
G:--------------------------|
D:--------------------------|
A:--------------------------|  x2
D:--1---4---1---4--\9-------|

G:-----------------------------|
D:--8-9-8--6-------------------|  x4
A:6----------9-9--7-7-7--9-6---|
D:-----------------------------|

(You try to take the best of me. . . )

G:-----------------------------|
D:--8-9-8--6-------------------|  x8
A:6----------9-9--7-7-7--9-6---|
D:-----------------------------|

(Bridge)
G:-----------------------------------|
D:-------------------------------4---|  x8
A:6-6--6-6-6-6--6-6-6--6-6-6-6-4-----|
D:-----------------------------------|

(Outro)
G:----------|
D:----------|
A:6--6------|
D:----------|

Thanks, please rate it after you learn it.
Tabbed by:
_TheBassist01_
Comments