Linkin Park - A06 Chords & Tabs

 

A06 Chords & Tabs

Linkin Park Chords & Tabs

Version: 1 Type: Bass Tab 0 ratings
1 star 2 stars 3 stars 4 stars 5 stars
comments

A06 Bass Tab

(0:12)
Gb|----------------------------------|
Db|----------------------------------|
Ab|----------------------------------|x3
Db|-7p0-0-0-1p0-0-0----0-1-0-1-0-0-0-|

Gb|----------------------------------|
Db|----------------------------------|
Ab|----------------------------------|
Db|-7p0-0-0-1p0-0-0------------------|

THEN:
Gb|----------------------------------|
Db|----------------------------------|
Ab|----------------------------------|x3
Db|-0-2-1-0-6-0-2-3-0-3-4-0-7-3-1----|
[ Tab from: http://www.guitartabs.cc/tabs/l/linkin_park/a06_btab.html ]
Gb|----------------------------------|
Db|----------------------------------|
Ab|----------------------------------|
Db|-0-2-1-0-6-0-2-3-0-3-4--00-00-----|
                           .. ..

Gb|----------------------------------|
Db|----------------------------------|
Ab|----------------------------------|x3
Db|-0-2-1-0-6-0-2-3-0-3-4-0-7-3-1----|

Gb|----------------------------------|
Db|----------------------------------|
Ab|----------------------------------|
Db|-0-2-1-0-6-0-2-3-00-00-00-00------|
                    .. .. .. ..

Comments