Link Graham - Prophecy Fullfilled Chords & Tabs

 

Prophecy Fullfilled Chords & Tabs

Link Graham Chords & Tabs

Version: 1 Type: Tab 1 rating
1 star 2 stars 3 stars 4 stars 5 stars
comments

Prophecy Fullfilled Tab

   
-------------------------------------------------------------------------------
			     Prophecy Fullfilled - Graham Link
-------------------------------------------------------------------------------
Tabbed by:
Email:

Tuning:Normal

e|---------0---------0-----------0---------0-2-0----3-2-3-2-3-2---2-3-2-3-2-3|
B|------3----3-----3---3-------3---3-----3----------------------3------------|
G|----2----------2-------2---2---------2-------------------------------------|
D|--0----------0-----------0---------0---------------------------------------|
A|---------------------------------------------------------------------------|
E|---------------------------------------------------------------------------|
[ Tab from: http://www.guitartabs.cc/tabs/l/link_graham/prophecy_fullfilled_tab.html ]
e|-2----2-3-2-3-2-3-2-------2-------2--------3-------3-------5-------5-------|
B|---3----------------3-2-3---3-2-3---3-2-3----3-2-3---3-2-3---3-2-3---3-2-3-|
G|---------------------------------------------------------------------------|
D|---------------------------------------------------------------------------|
A|---------------------------------------------------------------------------|
E|---------------------------------------------------------------------------|

e|-3-------3-------2-------2-------2-3-2-------------------------------------|
B|---3-2-3---3-2-3---3-2-3---3-2-3-------3-----------------------------------|
G|---------------------------------------------------------------------------|
D|---------------------------------------------------------------------------|
A|---------------------------------------------------------------------------|
E|---------------------------------------------------------------------------|


| /  slide up
| \  slide down
| h  hammer-on
| p  pull-off
| ~  vibrato
| +  harmonic
| x  Mute note
===============================================================================
Comments