Link 80 - Slap Chords & Tabs

 

Slap Chords & Tabs

Link 80 Chords & Tabs

Version: 1 Type: Bass Tab 0 ratings
1 star 2 stars 3 stars 4 stars 5 stars
comments

Slap Bass Tab

Song:  SLAp
Band:     liNK 80
Album: 17 reASonS
tabbed by:jUSTINsLATER  punkdork@hotmail.com

INTRo
G:---------------------------------------------------------------
D:--33----------------------3>--------------------------------
A:------33--44------66--------------------------------------
E:--------------44------66--------------------------------

BriDgE to VERSE
G:---------------------------------------------------------------
D:---333--333--333/1--------------------------------------------
A:---------------------------------------------------------------
E:---------------------------------------------------------------

VerSE
G:----2-3-5---2-3-5-------------------------------------------
D:--3-------3-----------5-6-8----5-6-8----------------------
A:--------------------6--------6-----------------------------
E:---------------------------------------------------------------
[ Tab from: http://www.guitartabs.cc/tabs/l/link_80/slap_btab.html ]
choRUS is The INTro

AFTErChorUS
G:---------------------------------------------------------------
D:-33------33-----33-------3>------------------------------
A:-----66-----44-------66------------------------------------
E:---------------------------------------------------------------

"mORe iS SAid IN SileNCe..." BridGE
G:---------------------------------------------------------------
D:------------55-66--88---------------------------------
A:-----6>-66---------------do it twice JacK-O-------------
E:---------------------------------------------------------------

VeRY LaST BAsS lINe in Song...
G:-----------------------88-66-55------------------------
D:-------------55--66-88----------88--------------------
A:-----6>--66--------------------------------------------
E:---------------------------------------------------------------

ThaT'S it, I thInK.
http://www.angelfire.com/nj/kickedintheballs


Comments