Linea 77 - Third Moon Chords & Tabs

 

Third Moon Chords & Tabs

Linea 77 Chords & Tabs

Version: 1 Type: Tab 0 ratings
1 star 2 stars 3 stars 4 stars 5 stars
comments

Third Moon Tab

   
Tabbed by: Tim Smit

it wasn't anywhere in the net, so I decided to make it myself.

Enjoy!


Chords used:

E : 2-2-2-X-X-X of X-7-9-9-X-X
B : 9-9-9-X-X-X of X-2-4-4-X-X
C : 10-10-10-X-X-X of X-3-5-5-X-X
D : 0-0-0-X-X-X of 12-12-12-X-X-X- of X-5-7-7-X-X
G : 5-5-5-X-X-X
F#: 4-4-4-X-X-X


Chinaski (guitarguy) appears to use some sort of reverb-effect. Since I don't have it,
I decided to write it down this way; all notes played:

Intro + verses: (light palmmute)

   E                 C                 A                 G       F#
e:-----------------|-----------------|-----------------|-----------------|
b:---------7-7-8-8-|---------3-3-5-5-|---------0-0-1-1-|-----------------|
g:-----------------|-----------------|-----------------|-----------------|
d:-----------------|-----------------|-----------------|-----------------|
a:-7-7-7-7---------|-3-3-3-3---------|-0-0-0-0---------|-----------------|
d:-----------------|-----------------|-----------------|-5-5-5-5-4-4-4-4-|


Intro:

E                                    C
 Good morning Miss Sadness open your eyes
                                                    A
Jumping on the ground, walkin' and waiting for that day 

I don't wanna loose I don't wanna choose 
  G                      F#
A way to escape 'cause I wanna create. 


Verse 1: (als intro, minder mute)

E                                    C
 Good morning Miss Sadness open your eyes
                                                    A
Jumping on the ground, walkin' and waiting for that day 

I don't wanna loose I don't wanna choose 
  G                      F#
A way to escape 'cause I wanna create. What?! 
  E
A fake world to describe full of winners with no smile 
C
waitin for that day I don't wanna play the game 
A
 so i'm coming I'm gonna get you soon 
         G                      F#
From the land of sorrow, to the third moon 


Pre-Chorus 1: (clean)

   E               /G               /C                     \B
e:-----------------|----------------|----------------------|--------------|
b:-----------------|----------------|----------------------|--------------|
g:-----------------|----------------|----------------------|--------------|
d:---4--4--4--4--4-|--7--7--7--7--7-|--12--12--12--12--12--|--11-11-11-11-|
a:--2--2--2--2--2--|-5--5--5--5--5--|-10--10--10--10--10---|-9--9--9--9---|
d:-2--2--2--2--2--2/5--5--5--5--5--5/10--10--10--10--10--10\9--9--9--9----|


E    
Watchin' the screen full of madness and freaks 
G 
With a strange man talkin' about shit things 
C                       B         
 I want to run faster before I die 



Verse 2: (als verse 1)

E
Follow the white rabbit it's the right way 
C
Turn off the eyes on the world that you got (got!)
A
Go out on the streets watch the faces 
   G                               B 
Of all the people that you can see - feel the atmosphere! 


Pre-chorus 2: (distortion) - fast strum

   E               G               C                       B
e:----------------|---------------|-----------------------|---------------|
b:----------------|---------------|-----------------------|---------------|
g:----------------|---------------|-----------------------|---------------|
d:----------------|---------------|-----------------------|---------------|
a:----------------|---------------|-----------------------|---------------|
d:-2|2|2|2|2|2|2|2/5|5|5|5|5|5|5|5/10|10|10|10|10|10|10|10\9|9|9|9|9|9|9|9|


E    
Watchin' the screen full of madness and freaks 
G 
With a strange man talkin' about shit things 
C                       B         
 I want to run faster before I die 




Chorus:(distortion)
   E          C           B       D
e:--------------------------------------------|
b:--------------------------------------------|
g:--------------------------------------------|
d:-2!--2-2--2/10-10-10-10\9-9-9-9/12-12-12-12-|
a:-2!--2-2--2/10-10-10-10\9-9-9-9/12-12-12-12-|
d:-2!--2-2--2/10-10-10-10\9-9-9-9/12-12-12-12-|

e:--------------------------------------------------|
b:--------------------------------------------------|
g:--------------------------------------------------|
d:-2-2-2-2---2-2--2/10-10-10-10\9-9-9-9/12-12-12-12-|
a:-2-2-2-2---2-2--2/10-10-10-10\9-9-9-9/12-12-12-12-|
d:-2-2-2-2---2-2--2/10-10-10-10\9-9-9-9/12-12-12-12-|

e:--------------------------------------------------|
b:--------------------------------------------------|
g:--------------------------------------------------|
d:-2-2-2-2---2-2--2/10-10-10-10\9-9-9-9/12-12-12-12-|
a:-2-2-2-2---2-2--2/10-10-10-10\9-9-9-9/12-12-12-12-|
d:-2-2-2-2---2-2--2/10-10-10-10\9-9-9-9/12-12-12-12-|
                                         
e:-----------------------------------------------|
b:-----------------------------------------------|
g:--------------------------------------*--------|
d:-2-2-2-2---2-2--2/10-10-10-10\9-9-9-9-4!-5!-2!-|
a:-2-2-2-2---2-2--2/10-10-10-10\9-9-9-9-4!-5!-2!-|
d:-2-2-2-2---2-2--2/10-10-10-10\9-9-9-9-4!-5!-2!-|* = start break


E                         /C
I, I'm floating in the space 
         \B       /D
Watching my world in flames 
E                      /C
 The sky will never burn 
 \B     /D
For...forever 
E                       /C  
 I'm waiting for that day 
     \B         /D    
When everything will change 
E                      /C
 The sky will never burn 
 \B   F#!G!E!  
For...forever



Break: (distortion)


   D E  D E/B D E   D E/B F#G E   D E  D E/B D E   D E/B F# G  E
e:----------------|-------------|----------------|----------------|
b:----------------|-------------|----------------|----------------|
g:----------------|-------------|----------------|----------------|
d:-0-2--0h2/7-0-2-|-0-2/7-4-5-2-|-0-2--0h2/7-0-2-|-0-2/7-4!-5!-2!-|
a:-0-2--0h2/7-0-2-|-0-2/7-4-5-2-|-0-2--0h2/7-0-2-|-0-2/7-4!-5!-2!-|
d:-0-2--0h2/7-0-2-|-0-2/7-4-5-2-|-0-2--0h2/7-0-2-|-0-2/7-4!-5!-2!-|
                                                        Go!go!go!

   D E  D E/B D E   D E/B F#G E   D E  D E/B D E   D E/B F# G  E
e:----------------|-------------|----------------|----------------|
b:----------------|-------------|----------------|----------------|
g:----------------|-------------|----------------|----------------|
d:-0-2--0h2/7-0-2-|-0-2/7-4-5-2-|-0-2--0h2/7-0-2-|-0-2/7-4!-5!-2!-|
a:-0-2--0h2/7-0-2-|-0-2/7-4-5-2-|-0-2--0h2/7-0-2-|-0-2/7-4!-5!-2!-|
d:-0-2--0h2/7-0-2-|-0-2/7-4-5-2-|-0-2--0h2/7-0-2-|-0-2/7-4!-5!-2!-|
                                                        Go!go!go!

[ Tab from: http://www.guitartabs.cc/tabs/l/linea_77/third_moon_tab.html ]
   D E  D E/B D E   D E/B F#G E   D E  D E/B D E   D E/B F# G  
e:----------------|-------------|----------------|-------------|
b:----------------|-------------|----------------|-------------|
g:----------------|-------------|----------------|-------------|
d:-0-2--0h2/7-0-2-|-0-2/7-4-5-2-|-0-2--0h2/7-0-2-|-0-2/7-4!-5!-|
a:-0-2--0h2/7-0-2-|-0-2/7-4-5-2-|-0-2--0h2/7-0-2-|-0-2/7-4!-5!-|
d:-0-2--0h2/7-0-2-|-0-2/7-4-5-2-|-0-2--0h2/7-0-2-|-0-2/7-4!-5!-|
                                                        Go!go!

Verse 3: (als verse 1)

E
 Follow the white rabbit it's the right way 
C
turn off the eyes on the world that you got 
A
go out on the streets watch the faces 
   G                               F#
of all the people that you can see - feel the atmosphere! 
E
Taste it and break it! It's not a joke 
       C
comin' up...yo you're not alone 
   A
so I'm coming, I'm gonna get you soon 
         G                     F#
from the land of sorrow to the third moon 



Pre-Chorus: (distortion)

E    
Watchin' the screen full of madness and freaks 
G 
With a strange man talkin' about shit things 
C                       B         
 I want to run faster before I die 


Chorus:

E                         /C
I, I'm floating in the space 
         \B       /D
Watching my world in flames 
E                      /C
 The sky will never burn 
 \B     /D
For...forever 
E                       /C  
 I'm waiting for that day 
     \B         /D    
When everything will change 
E                      /C
 The sky will never burn 
 \B   F#!G!E!  
For...forever


Break: (distortion)


   D E  D E/B D E   D E/B F#G E   D E  D E/B D E   D E/B F# G  E
e:----------------|-------------|----------------|----------------|
b:----------------|-------------|----------------|----------------|
g:----------------|-------------|----------------|----------------|
d:-0-2--0h2/7-0-2-|-0-2/7-4-5-2-|-0-2--0h2/7-0-2-|-0-2/7-4!-5!-2!-|
a:-0-2--0h2/7-0-2-|-0-2/7-4-5-2-|-0-2--0h2/7-0-2-|-0-2/7-4!-5!-2!-|
d:-0-2--0h2/7-0-2-|-0-2/7-4-5-2-|-0-2--0h2/7-0-2-|-0-2/7-4!-5!-2!-|
                                                        Go!go!go!

   D E  D E/B D E   D E/B F#G E   D E  D E/B D E   D E/B F# G  E
e:----------------|-------------|----------------|----------------|
b:----------------|-------------|----------------|----------------|
g:----------------|-------------|----------------|----------------|
d:-0-2--0h2/7-0-2-|-0-2/7-4-5-2-|-0-2--0h2/7-0-2-|-0-2/7-4!-5!-2!-|
a:-0-2--0h2/7-0-2-|-0-2/7-4-5-2-|-0-2--0h2/7-0-2-|-0-2/7-4!-5!-2!-|
d:-0-2--0h2/7-0-2-|-0-2/7-4-5-2-|-0-2--0h2/7-0-2-|-0-2/7-4!-5!-2!-|
                                                        Go!go!go!


   D E  D E/B D E   D E/B F#G E   D E  D E/B D E   D E/B F# G  
e:----------------|-------------|----------------|-------------|
b:----------------|-------------|----------------|-------------|
g:----------------|-------------|----------------|-------------|
d:-0-2--0h2/7-0-2-|-0-2/7-4-5-2-|-0-2--0h2/7-0-2-|-0-2/7-4!-5!-|
a:-0-2--0h2/7-0-2-|-0-2/7-4-5-2-|-0-2--0h2/7-0-2-|-0-2/7-4!-5!-|
d:-0-2--0h2/7-0-2-|-0-2/7-4-5-2-|-0-2--0h2/7-0-2-|-0-2/7-4!-5!-|
                                                        Go!go!


Bridge: (light distortion)

   E               G               C                       B
e:----------------|---------------|-----------------------|---------------|
b:----------------|---------------|-----------------------|---------------|
g:----------------|---------------|-----------------------|---------------|
d:----------------|---------------|-----------------------|---------------|
a:----------------|---------------|-----------------------|---------------|
d:-2|2|2|2|2|2|2|2/5|5|5|5|5|5|5|5/10|10|10|10|10|10|10|10\9|9|9|9|9|9|9|9|


(distortion)
   E      G      C       B 
e:------|------|-------|------|
b:------|------|-------|------|
g:------|------|-------|------|
d:-2~~~-|-5~~~-|-10~~~-|-9~~~-|
a:-2~~~-|-5~~~-|-10~~~-|-9~~~-|
d:-2~~~-|-5~~~-|-10~~~-|-9~~~-|

   E      G      C       B 
e:------|------|-------|------|
b:------|------|-------|------|
g:------|------|-------|------|
d:-2~~~-|-5~~~-|-10~~~-|-9~~~-|
a:-2~~~-|-5~~~-|-10~~~-|-9~~~-|
d:-2~~~-|-5~~~-|-10~~~-|-9~~~-|


  (clean)                            (distortion)
   E                G                 C                         B
e:-----------------|----------------|-------------------------|-----------------|
b:-----------------|----------------|-------------------------|-----------------|
g:-----------------|----------------|-------------------------|-----------------|
d:---4--4--4--4--4-|--7--7--7--7--7-|-10-10-10-10-10-10-10-10-|-9-9-9-9-9-9-9-9-|
a:--2--2--2--2--2--|-5--5--5--5--5--|-10-10-10-10-10-10-10-10-|-9-9-9-9-9-9-9-9-|
d:-2--2--2--2--2--2/5--5--5--5--5--5|-10-10-10-10-10-10-10-10-|-9-9-9-9-9-9-9-9-|


E~                                               G~
watchin' the screen full of madness and freaks - watching now!
C~                                                  B~
watchin' the screen full of madness and freaks - eh-heh-eeeheeeh
E~                                               G~
watchin' the screen full of madness and freaks - watching now!
C~                                      B~
with a strange man talkin' about shit things 

E             
watchin' the screen full of madness and freaks 
G
with that strange man talkin' about bullshit 
C                      B      
I want to run faster before I die! 



Chorus:(distortion)
   E          C           B       D
e:--------------------------------------------|
b:--------------------------------------------|
g:--------------------------------------------|
d:-2!--2-2--2/10-10-10-10\9-9-9-9/12-12-12-12-|
a:-2!--2-2--2/10-10-10-10\9-9-9-9/12-12-12-12-|
d:-2!--2-2--2/10-10-10-10\9-9-9-9/12-12-12-12-|

e:--------------------------------------------------|
b:--------------------------------------------------|
g:--------------------------------------------------|
d:-2-2-2-2---2-2--2/10-10-10-10\9-9-9-9/12-12-12-12-|
a:-2-2-2-2---2-2--2/10-10-10-10\9-9-9-9/12-12-12-12-|
d:-2-2-2-2---2-2--2/10-10-10-10\9-9-9-9/12-12-12-12-|

e:--------------------------------------------------|
b:--------------------------------------------------|
g:--------------------------------------------------|
d:-2-2-2-2---2-2--2/10-10-10-10\9-9-9-9/12-12-12-12-|
a:-2-2-2-2---2-2--2/10-10-10-10\9-9-9-9/12-12-12-12-|
d:-2-2-2-2---2-2--2/10-10-10-10\9-9-9-9/12-12-12-12-|
                                         
e:-----------------------------------------------|
b:-----------------------------------------------|
g:-----------------------------------------------|
d:-2-2-2-2---2-2--2/10-10-10-10\9-9-9-9-4!-5!-2~-|
a:-2-2-2-2---2-2--2/10-10-10-10\9-9-9-9-4!-5!-2~-|
d:-2-2-2-2---2-2--2/10-10-10-10\9-9-9-9-4!-5!-2~-|


E                         /C
I, I'm floating in the space 
         \B       /D
Watching my world in flames 
E                      /C
 The sky will never burn 
 \B     /D
For...forever 
E                       /C  
 I'm waiting for that day 
     \B         /D    
When everything will change 
E                      /C
 The sky will never burn 
 \B   F#!G!E~  
For...forever



That's all. You can hear the song (and others) at www.earache.com
A couple of other songs, including the new one "evoluzione" can be heard at http://www.myspace.com/linea77
Comments