Linea 77 - Moka Chords & Tabs

 

Moka Chords & Tabs

Linea 77 Chords & Tabs

Version: 1 Type: Tab 0 ratings
1 star 2 stars 3 stars 4 stars 5 stars
comments

Moka Tab

LINEA77 
MOKA 

tuning drop-D verse ("I did it in my way") 
E----------------------------------- ----------- 
B----------------------------------- ----------- 
G-----7x7x7/10x10x10/6x6x6/9x9x9---- --7-7-7-7-- 
D-----7x7x7/10x10x10/6x6x6/9x9x9---- --7-7-7-7-- 
A-----5x5x5/-8x-8x-8/4x4x4/7x7x7---- --5-5-5-5-- 
D----------------------------------- ----------- 
[ Tab from: http://www.guitartabs.cc/tabs/l/linea_77/moka_tab.html ]
1chorus X4 
E------------------ 
B------------------ 
G------------------ 
D----00-09-99------ 
A----00-09-99------ 
D----00-09-99------ 

2,3,4chorus X8 X1 
E----------------|------------- 
B----------------|------------- 
G----------------|------------- 
D----00-09-99----|-999999999--- 
A----00-09-99----|-999999999--- 
D----00-09-99----|-999999999--- 


bridge X2 
E--------------------------- 
B---4^--r--4^--r--4^--r--4^- 
G---0---e--0---e--0---e--0-- 
D-------s------s------s----- 
A-------t------t------t----- 
D---------------------------
Comments