Linea 77 - Ketchup Suicide Chords & Tabs

 

Ketchup Suicide Chords & Tabs

Linea 77 Chords & Tabs

Version: 1 Type: Tab 0 ratings
1 star 2 stars 3 stars 4 stars 5 stars
comments

Ketchup Suicide Tab

LINEA77
KETCHUP SUICIDE


intro
E-------------------------------
B--------------3----------------
G--------------2----------------
D--------------0----------------
A--------------0----------------
E-------------------------------


verse
riff1
E-----------------------------------
B-----------------------------------
G-----------------------------------
D---666x--66666x--66666x--6666/9----
A---666x--66666x--66666x--6666/9----
E---444x--44444x--44444x--4446/7----


chorus
riff2
E------------------------------------
B------------------------------------
G------------------------------------
D----6------9------4--4-4-4----------
A----6------9------4--4-4-4----------
E----4------7------2--2-2-2----------


bridge
riff3
E-------------------------------
B-------------------------------
G-------------------------------
D----6------9------4------------
A----6------9------4------------
E----4------7------2------------

riff4
E-----------------------------------
B-----------------------------------
G-----------------------------------
D---666x--66666x--66666x--6666/9----
A---666x--66666x--66666x--6666/9----
E---444x--44444x--44444x--4446/7----


E-----------------------------------
B-----------------------------------
G-----------------------------------
D---666x--66666x--66666x--6666/9----
A---666x--66666x--66666x--6666/9----
E---444x--44444x--44444x--4444/7----

[ Tab from: http://www.guitartabs.cc/tabs/l/linea_77/ketchup_suicide_tab.html ]
E-----------------------------------
B-----------------------------------
G-----------------------------------
D--0-999x--99999x--99999x--9999/12--
A--0-999x--99999x--99999x--9999/12--
E--0-777x--77777x--77777x--7777/10--


E-----------------------------------
B-----------------------------------
G-----------------------------------
D---444x--44444x--44444x--4444/7----
A---444x--44444x--44444x--4444/7----
E---222x--22222x--22222x--2222/5----

riff5
E-------------------------------
B-------------------------------
G-------------------------------
D----42-42----42-42----42-------
A----42-42----42-42----42-------
E----20-20----20-20----20-------


riff6
1111111111
E---0x00x00000------------------------------------
B---0x00x00000------------------------------------
G---0x00x00000------------------------------------
D---0x00x00000-----42-----------------------------
A---0x00x00000-----42(tranne l'ultima volta)------
E------------------20-----------------------------

1(suonate le corde vuote sul primo tasto)

riff7
E------------------------------------
B------------------------------------
G------------------------------------
D----6666666/9999999/44444----------
A----6666666/9999999/44444----------
E----4444444/7777777/22222----------

end
E-----------------------
B-----------------------
G-----------------------
D----------42-----------
A----------42-----------
E----------20-----------

intro
riff1 x4
riff2 x2
riff1 x4
riff2 x2
riff3 x2
riff4 x2
riff5 x1
riff6 x4
riff2 x2
riff7 x2
riff4 x2
end.
Comments