Lindy - Bautifully Undone Chords & Tabs


Bautifully Undone Chords & Tabs

Lindy Chords & Tabs

Version: 1 Type: Tab 0 ratings
1 star 2 stars 3 stars 4 stars 5 stars

Bautifully Undone Tab

Tabbed by; David St Bernard (Jul 17th 2005)

   G                C                Em               D
e |----------------|----------------|----------------|----------------|
B |3----1--0----01-|3----1--0----01-|3----1--01-0----|----3-----------|
G |---0-------0----|---0-------0----|---0----------0-|-----------0----|
D |--0---0---0---0-|--2---2---2---0-|--2---2---2---2-|4-------04---4--|
A |----------------|3---3---3---3---|----------------|--5---5---5---5-|
E |3---3---3---3---|----------------|0---0---0---0---|2---2---2---2---|
[ Tab from: ]
   C                G       D        C                G       D
e |--------3--2-0--|----------------|--------3--2-0--|----------------|
B |---1------------|3----10-------0-|1----1----------|3----10-------0-|
G |-----0----------|--------2----2--|---0------------|--------2----2--|
D |--2---2---2-2-0-|--0---0----0-0--|--2---2---2-2-0-|--0---0----0-0--|
A |3---3---3-------|--------------0-|3---3---3-------|--------------0-|
E |----------------|3---3---2-2-2---|----------------|3---3---2-2-2---|

   C                Em      D        C                D     
e |--------3--2-0--|----------------|----------------|----------------|
B |1----1----------|3-----3-3----10-|--------1---0---|--------3-------|
G |---0------------|---0-------0----|0----0----0---0-|-----0----------|
D |--2---2-------0-|------0---0-----|--04------------|0--4--4---------|
A |3---3---3-3-3---|------------0-0-|3-3---3-3-------|--5-------------|
E |----------------|0-0-----2-------|----3-----------|----------------|

I don't remember what it used to be like
the things that I am not proud of
And the only reason I kept coming back to you
Was because I thought I was in love

But I don't think about you anymore
And I wonder what the hell I came here for
When I'd rather just fall right off your floor
And come beautifully undone

I don't recall San Francisco at all
Falls right from my memory
And the only place that really exists
Is where you thought you'd found me