Lindsay Lohan - Ultimate Chords & Tabs

 

Ultimate Chords & Tabs

Lindsay Lohan Chords & Tabs

Version: 1 Type: Tab 3 ratings
1 star 2 stars 3 stars 4 stars 5 stars
comments

Ultimate Tab

Lindsay Lohan
Ultimate
Tabbed my Mino LX

standard tuning
P-pause

Intro
-19----------------------------------------------------------------
----19-19-19-------------------------------------------------------
-------------------------------------------------------------------
-------------------------------------------------------------------
-9-9-9-9-9-9-9-9-9-11-11-11-9-9-7-9-9-9-9-9-9-9-9-9-11-9-9-9-9-9-14

Verse
------------------------------------------------------------
-------------------------------------------------------------
-------------------------------------------------------------
-4-4-4-4-4-4-4-4-3-3-3-3-3-3-3-3-2-2-2-2-2-2-2-2-2-0-0-0-0-0- *Pause*
-2-2-2-2-2-2-2-2-2-2-2-2-2-2-2-2-1-1-1-1-1-1-1-1-1-0-0-0-0-0-
[ Tab from: http://www.guitartabs.cc/tabs/l/lindsay_lohan/ultimate_tab.html ]
Continue
------------------------------------------------
------------------------------------------------
------------------------------------------------
-4-4-4-4-4-4-4-4-7-7-7-7-7-7-7-7-2-2-2-2-2-2-2-2-
-2-2-2-2-2-2-2-2-5-5-5-5-5-5-5-5-2-2-2-2-2-2-2-2-

Pause*
-19-----------         Verse 2
----19-19-19-     2x

---------------------------------------------------
---------------------------------------------------
---------------------------------------------------
---------------------------------------------------
2-2-3-3-x-x----------------------------------------
---------------------------------------------------

Repeat Verse 

Chorus
------------------------------------------------
-------------------------------------------------
-------------------------------------------------
-5-5-5-5-5-5-5-6-6-6-6-3-3-3-3-2-2-2-2-1--pbig X--
444444-22--2-2--2-444-4444-x-x-x-x----------------

Repeat Intro
Comments