Limp Wrist - Limp Wrist Vs Dr Laura Chords & Tabs

 

Limp Wrist Vs Dr Laura Chords & Tabs

Limp Wrist Chords & Tabs

Version: 1 Type: Tab

Limp Wrist Vs Dr Laura Tab

K this is my first tab and I'm not use to tabbing but these are all power
chords and they are correct listen to the song to pick out the strumming.

Artist - Limp Wrist
Song - Limp Wrist

Intro

E|-----------------------------------|
B|-----------------------------------|
G|-----------------------------------|
D|------------777---------888--------|  x2
A|-----555----555---777---666--------|
E|-----333----------555--------------|

Verse

E|-----------------------------------|
B|-----------------------------------|
G|-----------------------------------|
D|------------777---------888--------|  x4
A|-----555----555---777---666--------|
E|-----333----------555--------------|

Chorus
[ Tab from: http://www.guitartabs.cc/tabs/l/limp_wrist/limp_wrist_vs_dr_laura_tab.html ]
E|--------------------------------------------------|
B|--------------------------------------------------|
G|--------------------------------------------------|
D|-----------88888888---------888---666-------------|  x2
A|-----555---66666666---555---666---444---5p---5p---|
E|-----333--------------333---------------3p---3p---|

Verse

E|-----------------------------------|
B|-----------------------------------|
G|-----------------------------------|
D|------------777---------888--------|  x4
A|-----555----555---777---666--------|
E|-----333----------555--------------|

Chorus

E|--------------------------------------------------|
B|--------------------------------------------------|
G|--------------------------------------------------|
D|-----------88888888---------888---666-------------|  x2
A|-----555---66666666---555---666---444---5p---5p---|
E|-----333--------------333---------------3p---3p---|

*p = Pulloff