Limp Bizkit - Wish You Were Here Chords & Tabs

 

Wish You Were Here Chords & Tabs

Limp Bizkit Chords & Tabs

Version: 2 Type: Tab 0 ratings
1 star 2 stars 3 stars 4 stars 5 stars
comments

Wish You Were Here Tab

   
#----------------------------------PLEASE NOTE---------------------------------#
#This file is the author's own work and represents their interpretation of the #
#song. You may only use this file for private study, scholarship, or research. #
#------------------------------------------------------------------------------#

Wish You Were Here
Limp Bizkit/Goo Goo Dolls
Tabed By: RMac

This sound pretty good to me. The band played it a little different from the original Pink Floyed version so I tabbed out it out. It sounds pretty good to me. Enjoy.

tuning: either standard Eb or standard E

Intro:

Play This 2X
e:-----------|--3---3-3-3--|--------------|--3--3-3-3--|
B:-----------|--3---3-3-3--|--------------|--3--3-3-3--|
G:-----------|--0---0-0-0--|------0-------|--0--0-0-0--|
D:------0-2--|--2---2-2-2--|----2---2-0---|--0--0-0-0--|
A:--0h2------|-------------|--0-----------|--2--2-2-2--|
E:-----------|-------------|--------------|--3--3-3-3--|

Play This 2x
e:-----------|--3---3-3-3--|--------------|--3--3-3-3--|
B:-----------|--3---3-3-3--|--------------|--3--3-3-3--|
G:-----------|--0---0-0-0--|--------------|--0--0-0-0--|
D:------0-2--|--2---2-2-2--|--0h2-0-------|--0--0-0-0--|
A:--0h2------|-------------|--------2-0---|--2--2-2-2--|
E:-----------|-------------|--------------|--3--3-3-3--|

e:---------------3--3-3-3-3--3-3-3-3-3--|
B:---------------3--3-3-3-3--3-3-3-3-3--|
G:---------------0--0-0-0-0--0-0-0-0-0--|
D:-------0-------0--0-0-0-0--0-0-0-0-0--|
A:--0h2----------2--2-2-2-2--2-2-2-2-2--|
E:----------3----3--3-3-3-3--3-3-3-3-3--|



There it is. Have Fun!!!
All comments are welcome!!!! Please send them in at the E-Mail address above.
[ Tab from: http://www.guitartabs.cc/tabs/l/limp_bizkit/wish_you_were_here_tab_ver_2.html ]
**********************************************************************************************************


This file is composed from the Sept. 11th telethon when Limp Bizkit 
did their version of "Wish You Were Here". I looked around on 
different web sites, but none of them have the correct tab. This is 
the way I play it and it's more accurate to me if you listen to the 
song.

This is completely the way I play the song, and it's my first time 
doing a TAB. I don't own the copyright.

Limp Bizkit
"Wish You Were Here"

Intro(Played on a 12-string acoustic guitar) :
----------------------3-3-3----|-------------------3-3-3--|
----------------------3-3-3----|-------------------3-3-3--|
----------------------0-0-0----|------0------------0-0-0--|
----------0h2------------------|----2---2-0---------------|
-0h2---------------------------|--0-----------------------|
-------------------------------|--------------------------|

----------------------3-3-3----|-------------------3-3-3--|
----------------------3-3-3----|-------------------3-3-3--|
----------------------0-0-0----|-------------------0-0-0--|
----------0h2------------------|---0h2--0-----------------|
-0h2---------------------------|------------2--0----------|
-------------------------------|--------------------------|
(x2)

then:
---------------3--3--3------------|
---------------3--3--3------------|
---------------0--0--0------------|
------0--------0--0--0------------|
--0h2----------2--2--2------------|
--------3------3--3--3------------|


Chords:
Verse:
    Am: 002210
   C/G: 332010
     G: 320033
  Dm7?: 000211

*****************************************************************************************************************
Comments