Limp Bizkit - Wish You Were Here Chords & Tabs

 

Wish You Were Here Chords & Tabs

Limp Bizkit Chords & Tabs

Version: 1 Type: Tab 0 ratings
1 star 2 stars 3 stars 4 stars 5 stars
comments

Wish You Were Here Tab

#----------------------------------PLEASE NOTE---------------------------------#
#This file is the author's own work and represents their interpretation of the #
#song. You may only use this file for private study, scholarship, or research. #
#------------------------------------------------------------------------------#

Wish You Were Here
Fred Durst and that Guy from the Goo-Goo Dolls from the WTC Telethon.

Take it easy, this is my first tab submission, but it sounds pretty good.  Play it close to the bottom of the guitar or on a 12 string for best results.

God Bless America!
[ Tab from: http://www.guitartabs.cc/tabs/l/limp_bizkit/wish_you_were_here_tab.html ]
INTRO (repeat this part)
e:----------------|--3---3-3-3--|-------------|--3---3-3-3----:|
B:----------------|--3---3-3-3--|-------------|--3---3-3-3----:|
G:----------------|--0---0-0-0--|-----0-------|--0---0-0-0----:|
D:----------0--2--|--2---2-2-2--|--2-----2--0-|--0---0-0-0----:|
A:------2---------|-------------|-------------|---------------:|
E:--3-------------|-------------|-------------|---------------:|
(repeat this part)
e:----------------|--3---3-3-3--|--------------|--3--3-3-3--------|
B:----------------|--3---3-3-3--|--------------|--3--3-3-3--------|
G:----------------|--0---0-0-0--|--------------|--0--0-0-0--------|
D:----------0--2--|--2---2-2-2--|--2--0--------|--0--0-0-0--------|
A:------2---------|-------------|--------2--0--|------------------|
E:--3-------------|-------------|--------------|------------------|

e:---------------3--3-3-3-3--3-3-3-3-3--:|
B:---------------3--3-3-3-3--3-3-3-3-3--:|
G:---------------0--0-0-0-0--0-0-0-0-0--:|
D:-------0-------0--0-0-0-0--0-0-0-0-0--:|
A:----2----------2--2-2-2-2--2-2-2-2-2--:|
E:----------3----3--3-3-3-3--3-3-3-3-3--:|
Comments