Limp Bizkit - Why Chords & Tabs

 

Why Chords & Tabs

Limp Bizkit Chords & Tabs

Version: 1 Type: Tab

Why Tab

   
Tuning: Db Ab Db Gb Bb Eb
Riff A (clean)4x
-------------------|
-----3-3-2-0-------|
-----2-2-2-2-------|
-0-0-0-0-0-0-0-0-0-|
-0-0-0-0-0-0-0-0-0-|
-0-0-0-0-0-0-0-0-0-|

Riff B (clean) 2x
-------------------|
-----8-8-7-5-------|
-----7-7-7-7-------|
-5-5-5-5-5-5-5-5-5-|
-5-5-5-5-5-5-5-5-5-|
-5-5-5-5-5-5-5-5-5-|

Riff A 4x
Riff B 2x
Riff C (clean) 1:
-----------------------|
-9-9-9-9-9-------------|
-8-8-8-8-8----7--------|
-7-7-7-7-7-9--5--------|
-7-7-7-7-7-9--5--------|
-7-7-7-7-7-9--5--------|
[ Tab from: http://www.guitartabs.cc/tabs/l/limp_bizkit/why_tab.html ]
Riff D: (clean) 4x (last 2 times, strum the chord)
--------------------|
-----3--------3--3--|
-----2--------2--2--|
---0--------0----0--|
--------------------|
-0------0-2---------|

Riff A 4x
Riff B 2x
Riff A 4x
Riff B 2x
Riff C 1x (distortion comes in here)
Riff E: Distorted 4x
------------------------------|
---------------3-3-3-3--------|
---------------2-2-2-2--------|
-0-0-0-0-2-2-2-0-0-0-0--------|
-0-0-0-0-2-2-2----------------|
-0-0-0-0-2-2-2----------------|

Riff F: distortet 2x open, 4x palm mute
---------------------------I------------------------------|
---------------------------I------------------------------|
---------------------------I------------------------------|
-5-7-7-7-7-5--5--7-7-7-7-5-I--5---7-7-7-5---5-7-7-7-7-5---|
-5-7-7-7-7-5--5--7-7-7-7-5-I--5---7-7-7-5---5-7-7-7-7-5---|
-5-7-7-7-7-5--5--7-7-7-7-5-I--5---7-7-7-5---5-7-7-7-7-5---|

Riff E 4x
Riff D 4x