Limp Bizkit - Truth Chords & Tabs

 

Truth Chords & Tabs

Limp Bizkit Chords & Tabs

Version: 6 Type: Tab 0 ratings
1 star 2 stars 3 stars 4 stars 5 stars
comments

Truth Tab

   
----------------------------------------------------------------------------
			     THE TRUTH - Limp Bizkit
----------------------------------------------------------------------------
Tabbed by: Shawbalz

Tuning:B,F#,B,E,G#,C#

Intro W/ delay): Listen to the song for timing
|--------------------------------------------------------------------------|
|--------------------------------------------------------------------------|
|---10-10-10b--------10-10-10b---------------10-10-10b---------------------|
|--------------------------------------------------------------------------|
|--------------------------------------------------------------------------|
|--------------------------------------------------------------------------|

|--------------------------------------------------------------------------|
|--------------------------------------------------------------------------|
|-------------10--9---------------------------10--9-------------------10---|
|--12--10--0---------0--12--10--0--12--10--0---------0--0--12--10--0-------|
|--------------------------------------------------------------------------|
|--------------------------------------------------------------------------|
[ Tab from: http://www.guitartabs.cc/tabs/l/limp_bizkit/truth_tab_ver_6.html ]
|----------------------------|
|----------------------------|
|-9----------------9-9-9-9---|
|----0--12--10--0------------|
|----------------------------|
|----------------------------|

Chorus
|---------------------------------------------------------------|
|---------------------------------------------------------------|
|---------------------------------------------------------------|
|-0-0-0-0-0-3h6p3--0-0---3---6---0-0-0-0-0-3h6h3--0-0---1p0h1---|
|-0-0-0-0-0-3h6p3--0-0---3---6---0-0-0-0-0-3h6h3--0-0---1p0h1---|
|-0-0-0-0-0-3h6p3--0-0---3---6---0-0-0-0-0-3h6h3--0-0---1p0h1---|        
  ---------                      ---------
      PM                            PM


Verse: Wes bends these strings apart 
|-----------------------------|
|--1414---1414----14----------|
|--1717---1717----17----------|
|-----------------------------|
|-----------------------------|
|-------0------0--------------|

slight bend on these strings
|-13-13-13-13-13-13-13-13-|
|-17-17-17-17-17-17-17-17-|
|-------------------------|
|-------------------------|
|-------------------------|
|-------------------------|

Bridge/Breakdown
|---5-----10-----8-----8-----7-----7-----6-----6------|
|--3-3---8--8---6-6---6-6---5-5---5-5---4-4---4-4-----|
|-2-----7------5-----5-----4-----4-----3-----3--------|
|-----------------------------------------------------|
|-----------------------------------------------------|
|-----------------------------------------------------|

Everything you need to play the song minus the guitar
Comments