Limp Bizkit - Truth Chords & Tabs

 

Truth Chords & Tabs

Limp Bizkit Chords & Tabs

Version: 5 Type: Tab 0 ratings
1 star 2 stars 3 stars 4 stars 5 stars
comments

Truth Tab

   
-------------------------------------------------------------------------------
			     The Truth - Limp Bizkit
-------------------------------------------------------------------------------
Tabbed by: Mark Plummer	
Email: happytreefriends_firstblood@hotmail.com

Track 2 off the new album, ok so this album ain't exactly that good but this song
rocks! so enjoi, i'm not so sure bout some parts especially Riff A and Riff B
cuz i think it could all be played up a step, but i got it
as close as I could! Play it with delay and reverb!

Tuning: Down 1 1/2 steps, drop B (B,F#,B,E,G#,C#)

Intro
Fill A (x10) - Gtr 1 (elec)
|---------------------------------------------------------------------------|
|--------------6------------------------------------------------------------|
|---------------------------------------------------------------------------|
|----------------------7----------------------------------------------------|
|---------------------------------------------------------------------------|
|---0-----------------------------------------------------------------------|
[ Tab from: http://www.guitartabs.cc/tabs/l/limp_bizkit/truth_tab_ver_5.html ]
Fill B - Gtr 2 (elec) (played with the bass line)
|---------------------------------------------------------------------------|
|666b~~~~~-------------666b~~~~~--666666-666b~~~~~--666666-666b~~~~~--------|
|---------------------------------------------------------------------------|
|---------------------------------------------------------------------------|
|---------------------------------------------------------------------------|
|---------------------------------------------------------------------------|
                                  |-----            |-----
                                  PM                 PM
|---------------------------------------------------------------------------|
|666666-666b~~~~~--666666-666b~~~~~-----------------------------------------|
|---------------------------------------------------------------------------|
|---------------------------------------------------------------------------|
|---------------------------------------------------------------------------|
|---------------------------------------------------------------------------|
 |-----           |------
  PM               PM

Riff A - Gtr 1 (x4)
|---------------------------------------------------------------------------|
|-----------------------------666b~~~---------------------------------------|
|---------------------------------------------------------------------------|
|---------------------------------------------------------------------------|
|5-5873-5358753-5-5873-5358753----------------------------------------------|
|-0--------------0----------------------------------------------------------|

Rhy. Fig. 1 (x4) - Gtr 1 & 2
|---------------------------------------------------------------------------|
|---------------------------------------------------------------------------|
|---------------------------------------------------------------------------|
|00000-3h6-3-0-3-6--00000-3h6-3-0-1-0h1-------------------------------------|
|00000-3h6-3-0-3-6--00000-3h6-3-0-1-0h1-------------------------------------|
|00000-3h6-3-0-3-6--00000-3h6-3-0-1-0h1-------------------------------------|
 |----              |----
  PM                 PM

Verse
Rhy. Fig. 2 (x4) - Gtr 1
|---------------------------12x32-------------------------------------------|
|--14141414-14---14141414-14------------------------------------------------|
|--17171717-17---17171717-17------------------------------------------------|
|---------------------------------------------------------------------------|
|---------------------------------------------------------------------------|
|00--------0---00--------0--------------------------------------------------|

Chorus - Riff A (x2), Rhy. Fig. 1 (x4)
Verse - Rhy. Fig. 2 (x4)
Chorus - Riff A (x2), Rhy. Fig. 1 (x4)

Breakdown
Riff B (x4) - Gtr 1
|---------------------------------------------------------------------------|
|---------------------------------------------------------------------------|
|---6----11----9---9---6---6---8---8----------------------------------------|
|--6-6-11--11-9-9-9-9-6-6-6-6-7-7-7-7---------------------------------------|
|-4---9------7---7---8---8---5---5------------------------------------------|
|---------------------------------------------------------------------------|

Riff A (x4)

Chorus - Riff A (x2), Rhy. Fig 1 (x4)

| B  Bend
| |----  Palm Muted
   PM
| h  hammer-on
| ~  vibrato
Comments