Limp Bizkit - Truth Chords & Tabs

 

Truth Chords & Tabs

Limp Bizkit Chords & Tabs

Version: 3 Type: Tab 0 ratings
1 star 2 stars 3 stars 4 stars 5 stars
comments

Truth Tab

   
Band- Limp Bizkit
Song- The Truth

Intro (Slight Delay)

C#||----------------------------------------||
G#||----------x--x-6---x--x-6---x-6~~~~~----||
E ||----------------------------------------||
B ||----------------------------------------||
F#||----------------------------------------||
B ||----------------------------------------||


Riff A - Pre Chorus                (1/4 bends)

C#||------------------------------------|----------------------------------------||
G#||------------------------------------|---------------------6b-6b-6b-6b--6b-6b-||
E ||------------------------------------|----------------------------------------||
B ||------------------------------------|----------------------------------------||
F#||-5-3-0--8-7-0--5-3-0-5-3-0--8-7-0-0-|-5-3-0--8-7-0--5-3-0--------------------||
B ||------------------------------------|----------------------------------------||


Riff B - Chorus (P.M.)


C#||-----------------------------|-----------------------------||
G#||-----------------------------|-----------------------------||
E ||-----------------------------|-----------------------------||
B ||-----------------------------|-----------------------------||
F#||-0-0-0-0--3h5--5--0-3--0-0-6-|-0-0-0-0--3h5--5--0-3--1-0-1-||
B ||-0-0-0-0--3h5--5--0-3--0-0-6-|-0-0-0-0--3h5--5--0-3--1-0-1-||



Riff C - Verse
[ Tab from: http://www.guitartabs.cc/tabs/l/limp_bizkit/truth_tab_ver_3.html ]
C#||-------------------------------------------------------------|
G#||------14~~~~~~~~~~-------14~~~-------14~~~~~~~~~-------14~~~-|
E ||------17~~~~~~~~~~-------17~~~-------17~~~~~~~~~-------17~~~-|
B ||-------------------------------------------------------------|
F#||-------------------------------------------------------------|
B ||-0-\----------------0-\----------0-\---------------0-\-------|
       \                  \            \                 \
        \                  \            \                 \


                                     

C#||-13-13-13-13-13-13-13-13-13-13-13-13-13-13-13-13-13-13-13-13-||
G#||-17-17-17-17-17-17-17-17-17-17-17-17-17-17-17-17-17-17-17-17-||
E ||-------------------------------------------------------------||
B ||-------------------------------------------------------------||
F#||-------------------------------------------------------------||
B ||-------------------------------------------------------------||



Bridge (Hold throughout)

C#||----------------------------------------------------|
G#||-------15------------20------------19---------19----|
E ||----14----14------19----19------17---17----17----17-|
B ||-12------------17------------15---------15----------|
F#||----------------------------------------------------|
B ||----------------------------------------------------|


C#||----------------------------------------------------||
G#||-------17------------17------------16---------16----||
E ||----16----16------16----16------15---16----15----15-||
B ||-14------------14------------13---------13----------||
F#||----------------------------------------------------||
C#||----------------------------------------------------||
Comments