Limp Bizkit - Truth Chords & Tabs

 

Truth Chords & Tabs

Limp Bizkit Chords & Tabs

Version: 2 Type: Tab 0 ratings
1 star 2 stars 3 stars 4 stars 5 stars
comments

Truth Tab

   
Tabbed by: Closer

Tune down 1 1/2 steps:
6: C#  3:E
5: F#  2:G#
4: B   1:C#
         Modaretly Slow Rock: 96 Bpm's

^=Bend down 1/4
*=Palm Mute (P.M.)

Intro:
Bass plays the PreChorus one oktave lower.
w/Delay
Repeat 2x

|--------------------|-------------------------|
|--------------------|-------------------------|
|--101010-10^--10~~--|--10*--101010-10^--10~~--|
|--------------------|-------------------------|
|--------------------|-------------------------|
|--------------------|-------------------------|

|--------------------------------|----------------------------------------|
|--------------------------------|----------------------------------------|
|--10*10*10*---101010-10^--10~~--|--10*10*10*----10*----101010-10^--10~~--|
|--------------------------------|----------------------------------------|
|--------------------------------|----------------------------------------|
|--------------------------------|----------------------------------------|

|--------------------------------------------------------------|
|--------------------------------------------------------------|
|--10*10*10*--10*--10*10*--10*---10*---------101010-10^--10~~--|
|--------------------------------------------------------------|
|--------------------------------------------------------------|
|--------------------------------------------------------------|
[ Tab from: http://www.guitartabs.cc/tabs/l/limp_bizkit/truth_tab_ver_2.html ]
PreChorus:
Repeat all this 4x
Repeat 2x
|--------------------------------------|--------------------|
|--------------------------------------|--------------------|
|--------------------------------------|--101010-10^--10~~--|
|--------------------------------------|--------------------|
|--17151520171517p15-1520p15 17p15-15--|--------------------|
|--------------------------------------|--------------------|

Chorus:
Repeat 4x

|------------------------|-----------------|-------------------------|----------------|
|------------------------|-----------------|-------------------------|----------------|
|------------------------|-----------------|-------------------------|----------------|
|------------------------|-----------------|-------------------------|----------------|
|--2*2*2*----/8--8s6--5--|--2*-2*-2*---10--|--2*2*2*-----/8--8s6--5--|--2*-2*-2*---4--|
|--0*0*0*--0-/6--6s4--3--|--0*-0*-0*---8---|--0*0*0*--0*-/6--6s4--3--|--0*-0*-0*---2--|


Verse:
First note is played by bass but i tabbed it for guitar
Repeat 2x Repeat all this 4x
|----------------------------|-------------------------------------|
|-------\14~~~/-----14~~14/--|--181818181818181818181818181818^18--|
|-------\17~~~/-----17~~17---|-------------------------------------|
|----------------------------|-------------------------------------|
|----------------------------|-------------------------------------|
|--0\------------------------|-------------------------------------|

PreChorus
Chorus
Verse
PreChorus
Chorus

Interlude:
Repeat 8x
|--------------------------------------------------------|
|--\17--15--17--15--\15--13--15--13--13--11--13--11--12--|
|--------------------------------------------------------|
|--------------------------------------------------------|
|--------------------------------------------------------|
|--------------------------------------------------------|

|------------------------------------|
|-18-------18--------17------17------|
|-----17-------17--------16------16--|
|------------------------------------|
|------------------------------------|
|------------------------------------|

PreChorus
PreChorus
Chorus

----------------------------------------------------------------------------------
Comments