Limp Bizkit - The One Chords & Tabs

 

The One Chords & Tabs

Limp Bizkit Chords & Tabs

Version: 2 Type: Tab 0 ratings
1 star 2 stars 3 stars 4 stars 5 stars
comments

The One Tab

Just like the song Nookie
it has a wierd tunning style

low to high ( F# F# B E )
4-string---  his custom guitar.. Hell yeah...

Step by step walk through.... Listen to the song for timing....

intro                                                            play 3x  

]------------------------12-----------------------12--0----11--------||--12/14--|
]*--------------------14-----------------------14-------------------*||---------|
]*--12-12-12-12-12-12--------12-12-12-12-12-12----------12-----12---*||--10/12--|
]--------------------------------------------------------------------||---------|

          Verse Play 7x

]---7---||-------------------------12-----------------------12--0----11--------||
]---7---||*---------------------14-----------------------14-------------------*||
]---5---||*---12-12-12-12-12-12--------12-12-12-12-12-12----------12-----12---*||
]-------||---------------------------------------------------------------------||

  Chorus 4x

]-----------------------------------------|--x-11-11-11-11-11-11-11---11-11-11-11-12-14-|
]-----------------------------------------|--x------------------------------------------|
]----------14-12-----10~~~-12~~~-12-12----|--x-12-12-12-12-12-12-12---12-12-12-12-10-12-|
]-0---0--0--------0--------------------0--|---------------------------------------------|

Now play this but not the second time around....
]---12/14----------|---7-------------|
]------------------|---7-------------|
]---10/12----------|---5-------------|
]------------------|-----------------|
[ Tab from: http://www.guitartabs.cc/tabs/l/limp_bizkit/the_one_tab_ver_2.html ]
Now play the verse riff again 7x then play the chorus 4x and omit the part with
the slide and 577 chord.... and in its place play the part below.

play this 4x, this is the slow mellow part...
"The grass could be green-er on the oth-er side.
But you, just nev-er know." 

]---14----------10---------|---7------------|
]--------------------------|----------------|
]---12----------8----------|---5------------|
]--------------------------|----------------|

Silence guitar for a whole after the 4th time the riff is played for the whispered part
 "This Could Be The One"

 Play this 4x
]-----------------------------------------|--x-11-11-11-11-11-11-11---11-11-11-11-12-14-|
]-----------------------------------------|--x------------------------------------------|
]----------14-12-----10~~~-12~~~-12-12----|--x-12-12-12-12-12-12-12---12-12-12-12-10-12-|
]-0---0--0--------0--------------------0--|---------------------------------------------|

 Play this 4x
]-----------------------------------------|--x-11-11-11-11-11-11-11---11-11-11-11-12-14-|
]-----------------------------------------|--x------------------------------------------|
]-0---0--0-14-12--0--10~~~-12~~~-12-12-0--|--x-12-12-12-12-12-12-12---12-12-12-12-10-12-|
]-0---0--0-14-12--0--10~~~-12~~~-12-12-0--|---------------------------------------------|

Outro 4x.........
]---14----------10---------|---7------------|
]--------------------------|----------------|
]---12----------8----------|---5------------|
]--------------------------|----------------|
             ~~END~~

Thats it done deal have fun, you want more give me a shout ENeeps@hotmail.com
also let me know if theres any mistakes....Wes Borland Rocks.........
Comments