Limp Bizkit - Take A Look Around Chords & Tabs

 

Take A Look Around Chords & Tabs

Limp Bizkit Chords & Tabs

Version: 6 Type: Tab 2 ratings
1 star 2 stars 3 stars 4 stars 5 stars
comments

Take A Look Around Tab

Limp Bizkit - Take A Look Around (MI2)

Since all those Take a Look Around tabs out there are either inaccurate or incomplete, 
I will try my best to do it right.  

Tune down all strings one half note except the E string, turn that one down to Db. 


Intro riff: repeat 8 times (palm mute and delay effect)

eb |---------------------------------------------------------------|
Bb |---------------------------------------------------------------|
Gb |---------------0-----------------------------------------------|
Db |-----------------7h5----------------0--------------------------|
Ab |--7--7--7--7-7--------7--7--7--7--7----6-----------------------| 
Db |---------------------------------------------------------------|


Verse: Repeat 2 times then 2 more times after Wes’s riff 
(some sort of delay effect)
[ Tab from: http://www.guitartabs.cc/tabs/l/limp_bizkit/take_a_look_around_tab_ver_6.html ]
eb |---------------------------------------------------------------|
Bb |--8--------8--------8--------8---------------------------------|
Gb |----9--------9--------9--------9-------------------------------|
Db -------9--------8--------7--------10----10-10-9-9---------------|
Ab |---------------------------------------------------------------| 
Db |---------------------------------------------------------------|


Chorus and intro chorus:

eb |---------------------------------------------------------------|
Bb |---------------------------------------------------------------|
Gb |---------------------------------------------------------------|
Db |--0h2-0h2-0h2-0h2--5--7--0h2-0h2-0h2-0h2--0--1-----------------|
Ab |--0h2-0h2-0h2-0h2--5--7--0h2-0h2-0h2-0h2--0--1-----------------| 
Db |--0h2-0h2-0h2-0h2--5--7--0h2-0h2-0h2-0h2--0--1-----------------|


Tabbed by: David Melin 
If u have any questions email me @ DaveMoulin@hotmail.com 
Comments