Limp Bizkit - Take A Look Around Chords & Tabs

 

Take A Look Around Chords & Tabs

Limp Bizkit Chords & Tabs

Version: 5 Type: Tab 0 ratings
1 star 2 stars 3 stars 4 stars 5 stars
comments

Take A Look Around Tab

   
Song: Take a Look Around (theme from m:i 2)
Band: Limp Bizkit

Tuning (low to high): Db Ab Db Gb Bb Eb

Riff A:

---------------------------
---------------------------
---------------------------
---------5-7p5-------------
-7-7-7-7-------7-7-7-7-5-6-
---------------------------
[ Tab from: http://www.guitartabs.cc/tabs/l/limp_bizkit/take_a_look_around_tab_ver_5.html ]
Riff B:
-14--------14-------14--------14-------------------
----12-11-----12-------12--------12-11-12-12-11-11-
-----------------14-------13-----------------------
---------------------------------------------------
---------------------------------------------------
---------------------------------------------------

Riff C:

-----------------------------------------
-----------------------------------------
-----------------------------------------
-----------------------------------------
-------------------0---------------------
-0h2-0h2-0h2-0h2-5---0h2-0h2-0h2-0h2-0-1-

Riff D:

-----------------------------------------
-----------------------------------------
-------------------2---------------------
-0-2-0-2-0-2-0-2-5-2-0-2-0-2-0-2-0-2-0-1-
-0-2-0-2-0-2-0-2-5-0-0-2-0-2-0-2-0-2-0-1-
-0h2-0h2-0h2-0h2-5---0h2-0h2-0h2-0h2-0-1-
Comments