Limp Bizkit - Take A Look Around Chords & Tabs

 

Take A Look Around Chords & Tabs

Limp Bizkit Chords & Tabs

Version: 3 Type: Tab 1 rating
1 star 2 stars 3 stars 4 stars 5 stars
comments

Take A Look Around Tab

take a look around
limp bizkit
jesse salai



i ve seen like ten versions of this song and none of them r correct
but this one is because i got it out of a magazine so here it is.

into
------------------------------------------------------------- 
------------------------------------------------------------- play 8
------------2---4---2----------------------------------------
-4-4-4-4---------------4-4-4-4---2-3-------------------------  times
-------------------------------------------------------------
-------------------------------------------------------------


verse

---17-14-------17-14--------17-14--------17-14---------------
---------14----------17-----------16-----------15-15-14-14---
------------------------------------------------------------- play 4
-------------------------------------------------------------  
-------------------------------------------------------------  times
-------------------------------------------------------------
now repeat the into twice and play the verse twice then here comes 
the chorus

chorus
           chorus part 1
-------------------------------------------------------------  play 4
-------------------------------------------------------------  times
-------------------------------------------------------------
-------------------------------------------------------------
----------------------0-2------------------------------------
--0-2-0-2-0-2-0-2------------0-2-0-2-0-2-0-2----0-1----------

[ Tab from: http://www.guitartabs.cc/tabs/l/limp_bizkit/take_a_look_around_tab_ver_3.html ]
           chorus part 2
-------------------------------------------------------------  play 2
-------------------------------------------------------------  times
-------------------------------------------------------------
---------------------0-4-------------------------------------
-0-4-0-4-0-4-0-4-----0-2-------0-4-0-4-0-4-0-4----2-3--------
-0-2-0-2-0-2-0-4---------------0-2-0-2-0-2-0-4----0-1--------

           chorus part 3
-------------------------------------------------------------  play 2
-------------------------------------------------------------  times
-------------------------------------------------------------
------------------0-4----------------------------------------
--4--4--4--4------0-2--------4--4--4--4------2--3------------
--2--2--2--2-----------------2--2--2--2------0--1------------

now play the into twice, and then another verse 4 times, then comes 
the chorus again then this little part



-------------------------------------------------------------  play 2
-------------------------------------------------------------  times
-------------------------------------------------------------
--------------0-4--------------------------------------------
--4--4--------0-2--------4--4--------2--3--------------------
--2--2-------------------2--2--------0--1--------------------

drum solo goes on for 4 measures and the intro comes in for 8 verses 
then the chorus parts 2 and 3 come in and finally this part



17-14---------17-14---------17-14---------17-14---------------
-----14(14-14)-----17(17-17)-----16(16-16)-----15-15-14-14---
------------------------------------------------------------- play 4
-------------------------------------------------------------  
-------------------------------------------------------------  times
-------------------------------------------------------------

        ()= tapping
and thats the song, if uve seen a better version then this one after u\'ve
played it, email me at texanjesse@aol.com

Comments