Limp Bizkit - Take A Look Around Chords & Tabs

 

Take A Look Around Chords & Tabs

Limp Bizkit Chords & Tabs

Version: 22 Type: Tab 0 ratings
1 star 2 stars 3 stars 4 stars 5 stars
comments

Take A Look Around Tab

Artist: LIMP BIZKIT
Song: Take a look around (Mission:Impossible 2)
Tuning: C#   F#   B   E    G#    c#  ( limp bizkit's standard tuning )
Tabbed by: Wassup  (wassuptab@sapo.pt)

Intro:
(Clean with delay)
c#-----------------------------------------------------|
G#-----------------------------------------------------|
E -------------------------------------------  repeat--| 8x
B -----------------------------------------------------|
F#-----------------12-14-------------------------------|
C#--14-14-14-14-14-------14-14-14-14-14-12-13----------|

Verse
(Still clean with delay)
c#-17-14-----17-14-----17-14------17-14-------------------|
G#-------14---------13--------12--------15-15-15-14-------|
E------------------------------------------------ repeat--| 2x
B---------------------------------------------------------|
F#--------------------------------------------------------|
C#--------------------------------------------------------|

c#-----------------------------------------------------|
G#-----------------------------------------------------|
E -------------------------------------------  repeat--| 2x
B -----------------------------------------------------|
F#-----------------12-14-------------------------------|
C#--14-14-14-14-14-------14-14-14-14-14-12-13----------|

c#-17-14-----17-14-----17-14------17-14-------------------|
G#-------14---------13--------12--------15-15-15-14-------|
E------------------------------------------------ repeat--| 2x
B---------------------------------------------------------|
F#--------------------------------------------------------|
C#--------------------------------------------------------|


Chorus
(Distortion)
c#----------------------------------------------------|
G#----------------------------------------------------|
E-----------------------------------------    repeat--| 4x
B-----------------------------------------------------|
F#-----------------0-2--------------------------------|
C#-0-2-0-2-0-2-0-2-----0-2-0-2-0-2-0-2-0-1------------|

(still in the Chorus)
(Heavy Distortion)
c#----------------------------------------------------|
G#----------------------------------------------------|
E-----------------------------------------    repeat--| 4x
B-----------------------------------------------------|
F#-----------------0-2--------------------------------|
C#-0-2-0-2-0-2-0-2-----0-2-0-2-0-2-0-2-0-1------------|

c#-----------------------------------------------------|
G#-----------------------------------------------------|
E -------------------------------------------  repeat--| 2x
B -----------------------------------------------------|
F#-----------------12-14-------------------------------|
C#--14-14-14-14-14-------14-14-14-14-14-12-13----------|
[ Tab from: http://www.guitartabs.cc/tabs/l/limp_bizkit/take_a_look_around_tab_ver_22.html ]
c#-17-14-----17-14-----17-14------17-14-------------------|
G#-------14---------13--------12--------15-15-15-14-------|
E------------------------------------------------ repeat--| 4x
B---------------------------------------------------------|
F#--------------------------------------------------------|
C#--------------------------------------------------------|

Chorus
(Distortion)
c#----------------------------------------------------|
G#----------------------------------------------------|
E-----------------------------------------    repeat--| 4x
B-----------------------------------------------------|
F#-----------------0-2--------------------------------|
C#-0-2-0-2-0-2-0-2-----0-2-0-2-0-2-0-2-0-1------------|

(still in the Chorus)
(Heavy Distortion)
c#----------------------------------------------------|
G#----------------------------------------------------|
E-----------------------------------------    repeat--| 4x
B-----------------------------------------------------|
F#-----------------0-2--------------------------------|
C#-0-2-0-2-0-2-0-2-----0-2-0-2-0-2-0-2-0-1------------|

(hard in this part - listen to the music)
c#----------------------------|
G#----------------------------|
E-----------------    repeat--| 2x
B-----------------------------|
F#-----0-2--------------------|
C#-2-2-----2-2-0-1------------|

(clean and very smooth)
c#---------------------------------------------|
G#---------------------------------------------|
E----------------------------------    repeat--| 4x
B----------------------------------------------|
F#--------------0-2----------------------------|
C#--2-2-2-2-2-2-----2-2-2-2-2-2-0-1------------|

(also clean and very smooth)
c#----------------------------------|
G#----------------------------------|
E ------------------------- repeat--| 4x
B ----------------------------------|
F#--------12-14---------------------|
C#--14-14-------14-14-12-13---------|

(same thing but with a light distortion)
c#----------------------------------|
G#----------------------------------|
E ------------------------- repeat--| 4x
B ----------------------------------|
F#--------12-14---------------------|
C#--14-14-------14-14-12-13---------|


Chorus
(Heavy Distortion)
c#----------------------------------------------------|
G#----------------------------------------------------|
E-----------------------------------------    repeat--| 4x
B-----------------------------------------------------|
F#-----------------0-2--------------------------------|
C#-0-2-0-2-0-2-0-2-----0-2-0-2-0-2-0-2-0-1------------|

To finish just play this part as many times you like...

c#-17-14-----17-14-----17-14------17-14-------------|
G#-------14---------13--------12--------15-15-15-14-|
E---------------------------------------------------| repeat...
B---------------------------------------------------|
F#--------------------------------------------------|
C#--------------------------------------------------|

I think this isn't a hard song to play and if you listen to the music closely you'll see 
this tab is like Wes and Mike play it! When I play it, it sounds great! Limp Bizkit is 
favourite band and I love all of their songs! If you have any doubts, please e-mail me
to this mail: wassuptab@sapo.pt!
Peace!!!
Comments