Limp Bizkit - Take A Look Around Chords & Tabs

 

Take A Look Around Chords & Tabs

Limp Bizkit Chords & Tabs

Version: 2 Type: Tab 0 ratings
1 star 2 stars 3 stars 4 stars 5 stars
comments

Take A Look Around Tab

   
Song:take a look around(MI2 Theme)
Artist:Limp Bizkit
Album:chochlate starfish,MI2 soundtrack
length:  5:14
Tabbed by:BK
bkslapshot@aol.com

Alrigiht, I am 99% sure that this tab is correct.Tune down the 
E to a D so its the following tuning D-a-D-G-B-E. If you have 
any comments or problems with the tab,you can e-mail me at 
bkslapshot@aol.com

Key:
h-hammer on
p-pull off
\-slide up
/-slide down
~ - vibrato
( )-let ring

riff a    8X          (0:00 - 0:39)
e-------------------------------------------
B-------------------------------------------
G-------------------------------------------
D--------------4h6p4------------------------
A----6-6-6-6-6-------6-6-6-6-6-4-5----------
D-------------------------------------------


Riff b  2X            (0:39-0:57)
e---14p11--------14p11---------14p11-------14p11-------
B--------(11)---------(10)----------(9)---------12-12-12-12p11h12p11
G------------------------------------------------------
D------------------------------------------------------
A------------------------------------------------------
D------------------------------------------------------


riff a  2X            (0:58-1:07) 
e------------------------------------------------------
B------------------------------------------------------
G------------------------------------------------------
D--------------4h6p4-----------------------------------
A----6-6-6-6-6-------6-6-6-6-6-4-5---------------------
D------------------------------------------------------


Riff b  2X            (1:07-1:25)  
e---14p11---------14p11--------14p11--------14p11-------
B--------(11)----------(10)---------(9)----------12-12-12-12p11h12p11
G-------------------------------------------------------
D-------------------------------------------------------
A-------------------------------------------------------
D-------------------------------------------------------


Pre chorus  4X        (1:26-1:45)
e-------------------------------------------------------
B-------------------------------------------------------
G-------------------------------------------------------
D-------------------------------------------------------
A-------------------------------------------------------
D--0-2-0-2-0-2-0-2-5-7--0-2-0-2-0-2-0-2-0-1-------------


Chorus    4X          (1:46-2:04)  
e-------------------------------------------------------
B-------------------------------------------------------
G-------------------------------------------------------
D--0-2-0-2-0-2-0-2-5-7--0-2-0-2-0-2-0-2-0-1-------------
A--0-2-0-2-0-2-0-2-5-7--0-2-0-2-0-2-0-2-0-1-------------
D--0-2-0-2-0-2-0-2-5-7--0-2-0-2-0-2-0-2-0-1-------------

[ Tab from: http://www.guitartabs.cc/tabs/l/limp_bizkit/take_a_look_around_tab_ver_2.html ]
riff a    2X          (2:05-2:13)
e-------------------------------------------------------
B-------------------------------------------------------
G-------------------------------------------------------
D--------------4h6p4------------------------------------
A----6-6-6-6-6-------6-6-6-6-6-4-5----------------------
D-------------------------------------------------------


Riff b    4X          (2:14-2:51)
e---14p11---------14p11----------14p11------14p11-------
B--------(11)---------(10)-----------(9)---------12-12-12-12p11h12p11
G-------------------------------------------------------
D-------------------------------------------------------
A-------------------------------------------------------
D-------------------------------------------------------


Pre chorus   4X       (2:52-3:10)
e-------------------------------------------------------
B-------------------------------------------------------
G-------------------------------------------------------
D-------------------------------------------------------
A-------------------------------------------------------
D--0-2-0-2-0-2-0-2-5-7--0-2-0-2-0-2-0-2-0-1-------------


Chorus    4X          (3:11-3:29)
e-------------------------------------------------------
B-------------------------------------------------------
G-------------------------------------------------------
D--0-2-0-2-0-2-0-2-5-7--0-2-0-2-0-2-0-2-0-1-------------
A--0-2-0-2-0-2-0-2-5-7--0-2-0-2-0-2-0-2-0-1-------------
D--0-2-0-2-0-2-0-2-5-7--0-2-0-2-0-2-0-2-0-1-------------


Post chorus    2X     (3:30-3:35)
e-------------------------------------------------------
B-------------------------------------------------------
G-------------------------------------------------------
D--2-2-5-7--2-2-0-1-------------------------------------
A--2-2-5-7--2-2-0-1-------------------------------------
D--2-2-5-7--2-2-0-1-------------------------------------

            then the drum solo (3:36-4:15)
                        next....

Chorus    4X          (4:16-4:35)
e-------------------------------------------------------
B-------------------------------------------------------
G-------------------------------------------------------
D--0-2-0-2-0-2-0-2-5-7--0-2-0-2-0-2-0-2-0-1-------------
A--0-2-0-2-0-2-0-2-5-7--0-2-0-2-0-2-0-2-0-1-------------
D--0-2-0-2-0-2-0-2-5-7--0-2-0-2-0-2-0-2-0-1-------------


Riff b    4X fade out   (4:35-5:14)  
e---14p11---------14p11---------14p11-------14p11-------
B--------(11)----------(10)----------(9)---------12-12-12-12p11h12p11
G-------------------------------------------------------
D-------------------------------------------------------
A-------------------------------------------------------
D-------------------------------------------------------

and that's the whole song.
Comments